ISO-10303-21;
HEADER;
FILE_DESCRIPTION (( 'STEP AP203' ),
    '1' );
FILE_NAME ('37007.step',
    '2021-10-07T13:47:10',
    ( '' ),
    ( '' ),
    'SwSTEP 2.0',
    'SolidWorks 2019',
    '' );
FILE_SCHEMA (( 'CONFIG_CONTROL_DESIGN' ));
ENDSEC;

DATA;
#1 = EDGE_LOOP ( 'NONE', ( #22 ) ) ;
#2 = CARTESIAN_POINT ( 'NONE',  ( 3.269329089482473308E-14, -1.146726279259063852E-15, 9.363730669589465094 ) ) ;
#3 = APPROVAL_PERSON_ORGANIZATION ( #34, #27, #52 ) ;
#4 = DIRECTION ( 'NONE',  ( -3.566536934050443982E-31, -1.000000000000000000, -1.003890900449543174E-16 ) ) ;
#5 = EDGE_LOOP ( 'NONE', ( #61 ) ) ;
#6 = ADVANCED_FACE ( 'NONE', ( #78, #95 ), #139, .T. ) ;
#7 = DIRECTION ( 'NONE',  ( -3.491481338843133355E-15, 1.224646799147353207E-16, -1.000000000000000000 ) ) ;
#8 = CARTESIAN_POINT ( 'NONE',  ( 1.132862564833458608E-15, -3.973546982659350347E-17, 0.3244647342748854801 ) ) ;
#9 = APPROVAL_STATUS ( 'not_yet_approved' ) ;
#10 = PRODUCT_DEFINITION_SHAPE ( 'NONE', 'NONE',  #121 ) ;
#11 = LOCAL_TIME ( 15, 47, 10.00000000000000000, #138 ) ;
#12 = CARTESIAN_POINT ( 'NONE',  ( 3.269329089482473308E-14, -1.146726279259063852E-15, 9.363730669589465094 ) ) ;
#13 = DIRECTION ( 'NONE',  ( -3.491481338843133355E-15, 1.224646799147353207E-16, -1.000000000000000000 ) ) ;
#14 = COORDINATED_UNIVERSAL_TIME_OFFSET ( 1, 0, .AHEAD. ) ;
#15 = DESIGN_CONTEXT ( 'detailed design', #146, 'design' ) ;
#16 = ADVANCED_FACE ( 'NONE', ( #63 ), #200, .F. ) ;
#17 = COORDINATED_UNIVERSAL_TIME_OFFSET ( 1, 0, .AHEAD. ) ;
#18 = AXIS2_PLACEMENT_3D ( 'NONE', #179, #7, #178 ) ;
#19 = DIRECTION ( 'NONE',  ( -3.491481338843133355E-15, 1.224646799147353207E-16, -1.000000000000000000 ) ) ;
#20 = FACE_OUTER_BOUND ( 'NONE', #126, .T. ) ;
#21 = APPROVAL_PERSON_ORGANIZATION ( #115, #144, #83 ) ;
#22 = ORIENTED_EDGE ( 'NONE', *, *, #124, .F. ) ;
#23 = DIRECTION ( 'NONE',  ( 3.491481338843133355E-15, -1.224646799147353207E-16, 1.000000000000000000 ) ) ;
#24 = APPROVAL ( #136, 'UNSPECIFIED' ) ;
#25 = ORIENTED_EDGE ( 'NONE', *, *, #182, .T. ) ;
#26 =( GEOMETRIC_REPRESENTATION_CONTEXT ( 3 ) GLOBAL_UNCERTAINTY_ASSIGNED_CONTEXT ( ( #77 ) ) GLOBAL_UNIT_ASSIGNED_CONTEXT ( ( #220, #132, #99 ) ) REPRESENTATION_CONTEXT ( 'NONE', 'WORKASPACE' ) );
#27 = APPROVAL ( #33, 'UNSPECIFIED' ) ;
#28 = CARTESIAN_POINT ( 'NONE',  ( 1.040461438975253740E-13, 0.7499999999999963363, 29.80000000000000071 ) ) ;
#29 = FACE_OUTER_BOUND ( 'NONE', #111, .T. ) ;
#30 = CARTESIAN_POINT ( 'NONE',  ( 0.0000000000000000000, 0.0000000000000000000, 0.0000000000000000000 ) ) ;
#31 = DIRECTION ( 'NONE',  ( -3.491481338843133355E-15, 1.224646799147353207E-16, -1.000000000000000000 ) ) ;
#32 = CC_DESIGN_PERSON_AND_ORGANIZATION_ASSIGNMENT ( #172, #86, ( #80 ) ) ;
#33 = APPROVAL_STATUS ( 'not_yet_approved' ) ;
#34 = PERSON_AND_ORGANIZATION ( #149, #202 ) ;
#35 = LOCAL_TIME ( 15, 47, 10.00000000000000000, #14 ) ;
#36 = CALENDAR_DATE ( 2021, 7, 10 ) ;
#37 = DIRECTION ( 'NONE',  ( -4.275831445896958607E-31, -1.000000000000000000, -1.224646799147353207E-16 ) ) ;
#38 = FACE_BOUND ( 'NONE', #129, .T. ) ;
#39 = MANIFOLD_SOLID_BREP ( 'Corps-Déplacer/Copier1[1]', #43 ) ;
#40 = DIRECTION ( 'NONE',  ( 0.0000000000000000000, 1.000000000000000000, 0.0000000000000000000 ) ) ;
#41 = PLANE ( 'NONE',  #48 ) ;
#42 = PRODUCT ( '37007', '37007', '', ( #68 ) ) ;
#43 = CLOSED_SHELL ( 'NONE', ( #137, #89, #157, #6, #16 ) ) ;
#44 = CARTESIAN_POINT ( 'NONE',  ( 0.0000000000000000000, 0.0000000000000000000, 0.0000000000000000000 ) ) ;
#45 = FACE_OUTER_BOUND ( 'NONE', #58, .T. ) ;
#46 = VERTEX_POINT ( 'NONE', #185 ) ;
#47 = EDGE_CURVE ( 'NONE', #150, #150, #176, .T. ) ;
#48 = AXIS2_PLACEMENT_3D ( 'NONE', #141, #210, #37 ) ;
#49 = CYLINDRICAL_SURFACE ( 'NONE', #113, 0.7499999999999986677 ) ;
#50 = DATE_TIME_ROLE ( 'classification_date' ) ;
#51 = ADVANCED_FACE ( 'NONE', ( #73 ), #41, .T. ) ;
#52 = APPROVAL_ROLE ( '' ) ;
#53 = CC_DESIGN_SECURITY_CLASSIFICATION ( #66, ( #80 ) ) ;
#54 = COORDINATED_UNIVERSAL_TIME_OFFSET ( 1, 0, .AHEAD. ) ;
#55 = EDGE_CURVE ( 'NONE', #154, #154, #117, .T. ) ;
#56 = EDGE_LOOP ( 'NONE', ( #96 ) ) ;
#57 = AXIS2_PLACEMENT_3D ( 'NONE', #12, #168, #116 ) ;
#58 = EDGE_LOOP ( 'NONE', ( #145 ) ) ;
#59 = ORIENTED_EDGE ( 'NONE', *, *, #197, .T. ) ;
#60 = CC_DESIGN_PERSON_AND_ORGANIZATION_ASSIGNMENT ( #156, #159, ( #80 ) ) ;
#61 = ORIENTED_EDGE ( 'NONE', *, *, #197, .F. ) ;
#62 = CONICAL_SURFACE ( 'NONE', #155, 0.5399999999999989253, 1.029744258676649649 ) ;
#63 = FACE_OUTER_BOUND ( 'NONE', #162, .T. ) ;
#64 = VERTEX_POINT ( 'NONE', #28 ) ;
#65 = PRODUCT_RELATED_PRODUCT_CATEGORY ( 'detail', '', ( #42 ) ) ;
#66 = SECURITY_CLASSIFICATION ( '', '', #90 ) ;
#67 = DIRECTION ( 'NONE',  ( -3.491481338843133355E-15, 1.224646799147353207E-16, -1.000000000000000000 ) ) ;
#68 = MECHANICAL_CONTEXT ( 'NONE', #118, 'mechanical' ) ;
#69 = PERSON_AND_ORGANIZATION_ROLE ( 'design_owner' ) ;
#70 = AXIS2_PLACEMENT_3D ( 'NONE', #8, #31, #134 ) ;
#71 = APPROVAL_DATE_TIME ( #119, #24 ) ;
#72 = COORDINATED_UNIVERSAL_TIME_OFFSET ( 1, 0, .AHEAD. ) ;
#73 = FACE_OUTER_BOUND ( 'NONE', #213, .T. ) ;
#74 = ORIENTED_EDGE ( 'NONE', *, *, #124, .T. ) ;
#75 = AXIS2_PLACEMENT_3D ( 'NONE', #30, #13, #186 ) ;
#76 = EDGE_CURVE ( 'NONE', #46, #46, #160, .T. ) ;
#77 = UNCERTAINTY_MEASURE_WITH_UNIT (LENGTH_MEASURE( 1.000000000000000082E-05 ), #220, 'distance_accuracy_value', 'NONE');
#78 = FACE_OUTER_BOUND ( 'NONE', #1, .T. ) ;
#79 = DIRECTION ( 'NONE',  ( 4.275831445896958607E-31, 1.000000000000000000, 1.224646799147353207E-16 ) ) ;
#80 = PRODUCT_DEFINITION_FORMATION_WITH_SPECIFIED_SOURCE ( 'ANY', '', #42, .NOT_KNOWN. ) ;
#81 = VERTEX_POINT ( 'NONE', #101 ) ;
#82 = PLANE ( 'NONE',  #91 ) ;
#83 = APPROVAL_ROLE ( '' ) ;
#84 = AXIS2_PLACEMENT_3D ( 'NONE', #198, #19, #92 ) ;
#85 = FACE_OUTER_BOUND ( 'NONE', #5, .T. ) ;
#86 = PERSON_AND_ORGANIZATION_ROLE ( 'design_supplier' ) ;
#87 = ADVANCED_BREP_SHAPE_REPRESENTATION ( '37007', ( #39, #112, #222 ), #26 ) ;
#88 = APPROVAL_DATE_TIME ( #174, #27 ) ;
#89 = ADVANCED_FACE ( 'NONE', ( #38, #20 ), #105, .T. ) ;
#90 = SECURITY_CLASSIFICATION_LEVEL ( 'unclassified' ) ;
#91 = AXIS2_PLACEMENT_3D ( 'NONE', #171, #187, #205 ) ;
#92 = DIRECTION ( 'NONE',  ( 0.0000000000000000000, 1.000000000000000000, 0.0000000000000000000 ) ) ;
#93 = CC_DESIGN_APPROVAL ( #144, ( #121 ) ) ;
#94 = ORIENTED_EDGE ( 'NONE', *, *, #47, .T. ) ;
#95 = FACE_BOUND ( 'NONE', #56, .T. ) ;
#96 = ORIENTED_EDGE ( 'NONE', *, *, #76, .T. ) ;
#97 = ADVANCED_FACE ( 'NONE', ( #142 ), #62, .T. ) ;
#98 = ORIENTED_EDGE ( 'NONE', *, *, #55, .T. ) ;
#99 =( NAMED_UNIT ( * ) SI_UNIT ( $, .STERADIAN. ) SOLID_ANGLE_UNIT ( ) );
#100 = CYLINDRICAL_SURFACE ( 'NONE', #75, 0.5399999999999992584 ) ;
#101 = CARTESIAN_POINT ( 'NONE',  ( 1.132862564833458805E-15, 0.5399999999999989253, 0.3244647342748855356 ) ) ;
#102 = CALENDAR_DATE ( 2021, 7, 10 ) ;
#103 = LOCAL_TIME ( 15, 47, 10.00000000000000000, #72 ) ;
#104 = DATE_AND_TIME ( #36, #103 ) ;
#105 = CONICAL_SURFACE ( 'NONE', #193, 0.7499999999999975575, 0.5235987755982938197 ) ;
#106 = DIRECTION ( 'NONE',  ( -3.491481338843133355E-15, 1.224646799147353207E-16, -1.000000000000000000 ) ) ;
#107 = EDGE_LOOP ( 'NONE', ( #25 ) ) ;
#108 = AXIS2_PLACEMENT_3D ( 'NONE', #130, #106, #143 ) ;
#109 = FACE_OUTER_BOUND ( 'NONE', #110, .T. ) ;
#110 = EDGE_LOOP ( 'NONE', ( #94 ) ) ;
#111 = EDGE_LOOP ( 'NONE', ( #74 ) ) ;
#112 = MANIFOLD_SOLID_BREP ( 'Corps-Déplacer/Copier1[2]', #167 ) ;
#113 = AXIS2_PLACEMENT_3D ( 'NONE', #44, #67, #215 ) ;
#114 = FACE_OUTER_BOUND ( 'NONE', #181, .T. ) ;
#115 = PERSON_AND_ORGANIZATION ( #149, #202 ) ;
#116 = DIRECTION ( 'NONE',  ( 0.0000000000000000000, 1.000000000000000000, 0.0000000000000000000 ) ) ;
#117 = CIRCLE ( 'NONE', #18, 0.5399999999999994804 ) ;
#118 = APPLICATION_CONTEXT ( 'configuration controlled 3d designs of mechanical parts and assemblies' ) ;
#119 = DATE_AND_TIME ( #102, #218 ) ;
#120 = CIRCLE ( 'NONE', #173, 0.7500000000000000000 ) ;
#121 = PRODUCT_DEFINITION ( 'UNKNOWN', '', #80, #15 ) ;
#122 = APPROVAL_DATE_TIME ( #104, #144 ) ;
#123 = CALENDAR_DATE ( 2021, 7, 10 ) ;
#124 = EDGE_CURVE ( 'NONE', #64, #64, #120, .T. ) ;
#125 = DIRECTION ( 'NONE',  ( -3.491481338843133355E-15, 1.224646799147353207E-16, -1.000000000000000000 ) ) ;
#126 = EDGE_LOOP ( 'NONE', ( #59 ) ) ;
#127 = CARTESIAN_POINT ( 'NONE',  ( 1.040461438975253740E-13, -3.649447461459112464E-15, 29.80000000000000071 ) ) ;
#128 = LOCAL_TIME ( 15, 47, 10.00000000000000000, #17 ) ;
#129 = EDGE_LOOP ( 'NONE', ( #201 ) ) ;
#130 = CARTESIAN_POINT ( 'NONE',  ( 3.142333204958820020E-14, -1.102182119232617714E-15, 9.000000000000000000 ) ) ;
#131 = CC_DESIGN_PERSON_AND_ORGANIZATION_ASSIGNMENT ( #161, #208, ( #66 ) ) ;
#132 =( NAMED_UNIT ( * ) PLANE_ANGLE_UNIT ( ) SI_UNIT ( $, .RADIAN. ) );
#133 = PERSON_AND_ORGANIZATION ( #149, #202 ) ;
#134 = DIRECTION ( 'NONE',  ( 3.566536934050443982E-31, 1.000000000000000000, 1.003890900449543174E-16 ) ) ;
#135 = PERSON_AND_ORGANIZATION ( #149, #202 ) ;
#136 = APPROVAL_STATUS ( 'not_yet_approved' ) ;
#137 = ADVANCED_FACE ( 'NONE', ( #109 ), #82, .F. ) ;
#138 = COORDINATED_UNIVERSAL_TIME_OFFSET ( 1, 0, .AHEAD. ) ;
#139 = CONICAL_SURFACE ( 'NONE', #214, 0.5500000000000001554, 0.7853981633974510546 ) ;
#140 = APPROVAL_ROLE ( '' ) ;
#141 = CARTESIAN_POINT ( 'NONE',  ( 3.142333204958820020E-14, 4.049351413186995151E-33, 9.000000000000000000 ) ) ;
#142 = FACE_OUTER_BOUND ( 'NONE', #107, .T. ) ;
#143 = DIRECTION ( 'NONE',  ( 0.0000000000000000000, 1.000000000000000000, 0.0000000000000000000 ) ) ;
#144 = APPROVAL ( #9, 'UNSPECIFIED' ) ;
#145 = ORIENTED_EDGE ( 'NONE', *, *, #182, .F. ) ;
#146 = APPLICATION_CONTEXT ( 'configuration controlled 3d designs of mechanical parts and assemblies' ) ;
#147 = APPROVAL_PERSON_ORGANIZATION ( #135, #24, #140 ) ;
#148 = CARTESIAN_POINT ( 'NONE',  ( 1.047444401652940007E-13, 4.124339402320053683E-33, 30.00000000000000000 ) ) ;
#149 = PERSON ( 'UNSPECIFIED', 'UNSPECIFIED', 'UNSPECIFIED', ('UNSPECIFIED'), ('UNSPECIFIED'), ('UNSPECIFIED') ) ;
#150 = VERTEX_POINT ( 'NONE', #188 ) ;
#151 = CARTESIAN_POINT ( 'NONE',  ( 3.269329089482473308E-14, 0.7499999999999963363, 9.363730669589465094 ) ) ;
#152 = VERTEX_POINT ( 'NONE', #151 ) ;
#153 = CC_DESIGN_APPROVAL ( #24, ( #66 ) ) ;
#154 = VERTEX_POINT ( 'NONE', #219 ) ;
#155 = AXIS2_PLACEMENT_3D ( 'NONE', #211, #164, #4 ) ;
#156 = PERSON_AND_ORGANIZATION ( #149, #202 ) ;
#157 = ADVANCED_FACE ( 'NONE', ( #85, #29 ), #49, .T. ) ;
#158 = CC_DESIGN_DATE_AND_TIME_ASSIGNMENT ( #194, #50, ( #66 ) ) ;
#159 = PERSON_AND_ORGANIZATION_ROLE ( 'creator' ) ;
#160 = CIRCLE ( 'NONE', #84, 0.5500000000000001554 ) ;
#161 = PERSON_AND_ORGANIZATION ( #149, #202 ) ;
#162 = EDGE_LOOP ( 'NONE', ( #165 ) ) ;
#163 = CC_DESIGN_APPROVAL ( #27, ( #80 ) ) ;
#164 = DIRECTION ( 'NONE',  ( 3.491481338843133355E-15, -1.224646799147353207E-16, 1.000000000000000000 ) ) ;
#165 = ORIENTED_EDGE ( 'NONE', *, *, #76, .F. ) ;
#166 = DIRECTION ( 'NONE',  ( 0.0000000000000000000, 1.000000000000000000, 0.0000000000000000000 ) ) ;
#167 = CLOSED_SHELL ( 'NONE', ( #97, #217, #51 ) ) ;
#168 = DIRECTION ( 'NONE',  ( -3.491481338843133355E-15, 1.224646799147353207E-16, -1.000000000000000000 ) ) ;
#169 = CARTESIAN_POINT ( 'NONE',  ( 0.0000000000000000000, 0.0000000000000000000, 0.0000000000000000000 ) ) ;
#170 = CIRCLE ( 'NONE', #70, 0.5399999999999989253 ) ;
#171 = CARTESIAN_POINT ( 'NONE',  ( 3.142333204958820020E-14, 4.049351413186995151E-33, 9.000000000000000000 ) ) ;
#172 = PERSON_AND_ORGANIZATION ( #149, #202 ) ;
#173 = AXIS2_PLACEMENT_3D ( 'NONE', #127, #199, #40 ) ;
#174 = DATE_AND_TIME ( #123, #35 ) ;
#175 = DATE_TIME_ROLE ( 'creation_date' ) ;
#176 = CIRCLE ( 'NONE', #108, 0.5399999999999994804 ) ;
#177 = CC_DESIGN_DATE_AND_TIME_ASSIGNMENT ( #191, #175, ( #121 ) ) ;
#178 = DIRECTION ( 'NONE',  ( 0.0000000000000000000, 1.000000000000000000, 0.0000000000000000000 ) ) ;
#179 = CARTESIAN_POINT ( 'NONE',  ( 3.142333204958820020E-14, -1.102182119232617714E-15, 9.000000000000000000 ) ) ;
#180 = ORIENTED_EDGE ( 'NONE', *, *, #55, .F. ) ;
#181 = EDGE_LOOP ( 'NONE', ( #98 ) ) ;
#182 = EDGE_CURVE ( 'NONE', #81, #81, #170, .T. ) ;
#183 = DIRECTION ( 'NONE',  ( -3.491481338843133355E-15, 1.224646799147353207E-16, -1.000000000000000000 ) ) ;
#184 = AXIS2_PLACEMENT_3D ( 'NONE', #148, #183, #79 ) ;
#185 = CARTESIAN_POINT ( 'NONE',  ( 1.047444401652940007E-13, 0.5499999999999964917, 30.00000000000000000 ) ) ;
#186 = DIRECTION ( 'NONE',  ( 4.275831445896958607E-31, 1.000000000000000000, 1.224646799147353207E-16 ) ) ;
#187 = DIRECTION ( 'NONE',  ( 3.491481338843133355E-15, -1.224646799147353207E-16, 1.000000000000000000 ) ) ;
#188 = CARTESIAN_POINT ( 'NONE',  ( 3.142333204958820020E-14, 0.5399999999999983702, 9.000000000000000000 ) ) ;
#189 = CIRCLE ( 'NONE', #57, 0.7499999999999975575 ) ;
#190 = APPLICATION_PROTOCOL_DEFINITION ( 'international standard', 'config_control_design', 1994, #146 ) ;
#191 = DATE_AND_TIME ( #209, #128 ) ;
#192 = PERSON_AND_ORGANIZATION_ROLE ( 'creator' ) ;
#193 = AXIS2_PLACEMENT_3D ( 'NONE', #2, #23, #212 ) ;
#194 = DATE_AND_TIME ( #223, #11 ) ;
#195 = SHAPE_DEFINITION_REPRESENTATION ( #10, #87 ) ;
#196 = CARTESIAN_POINT ( 'NONE',  ( 1.047444401652940007E-13, -3.673940397442059178E-15, 30.00000000000000000 ) ) ;
#197 = EDGE_CURVE ( 'NONE', #152, #152, #189, .T. ) ;
#198 = CARTESIAN_POINT ( 'NONE',  ( 1.047444401652940007E-13, -3.673940397442059178E-15, 30.00000000000000000 ) ) ;
#199 = DIRECTION ( 'NONE',  ( -3.491481338843133355E-15, 1.224646799147353207E-16, -1.000000000000000000 ) ) ;
#200 = PLANE ( 'NONE',  #184 ) ;
#201 = ORIENTED_EDGE ( 'NONE', *, *, #47, .F. ) ;
#202 = ORGANIZATION ( 'UNSPECIFIED', 'UNSPECIFIED', '' ) ;
#203 = DIRECTION ( 'NONE',  ( 0.0000000000000000000, 0.0000000000000000000, 1.000000000000000000 ) ) ;
#204 = CC_DESIGN_PERSON_AND_ORGANIZATION_ASSIGNMENT ( #133, #69, ( #42 ) ) ;
#205 = DIRECTION ( 'NONE',  ( -4.275831445896958607E-31, -1.000000000000000000, -1.224646799147353207E-16 ) ) ;
#206 = PERSON_AND_ORGANIZATION ( #149, #202 ) ;
#207 = CC_DESIGN_PERSON_AND_ORGANIZATION_ASSIGNMENT ( #206, #192, ( #121 ) ) ;
#208 = PERSON_AND_ORGANIZATION_ROLE ( 'classification_officer' ) ;
#209 = CALENDAR_DATE ( 2021, 7, 10 ) ;
#210 = DIRECTION ( 'NONE',  ( 3.491481338843133355E-15, -1.224646799147353207E-16, 1.000000000000000000 ) ) ;
#211 = CARTESIAN_POINT ( 'NONE',  ( 1.132862564833458608E-15, -3.973546982659350347E-17, 0.3244647342748854801 ) ) ;
#212 = DIRECTION ( 'NONE',  ( 0.0000000000000000000, -1.000000000000000000, 0.0000000000000000000 ) ) ;
#213 = EDGE_LOOP ( 'NONE', ( #180 ) ) ;
#214 = AXIS2_PLACEMENT_3D ( 'NONE', #196, #125, #166 ) ;
#215 = DIRECTION ( 'NONE',  ( 4.275831445896959482E-31, 1.000000000000000000, 1.224646799147353207E-16 ) ) ;
#216 = APPLICATION_PROTOCOL_DEFINITION ( 'international standard', 'config_control_design', 1994, #118 ) ;
#217 = ADVANCED_FACE ( 'NONE', ( #45, #114 ), #100, .T. ) ;
#218 = LOCAL_TIME ( 15, 47, 10.00000000000000000, #54 ) ;
#219 = CARTESIAN_POINT ( 'NONE',  ( 3.142333204958820020E-14, 0.5399999999999983702, 9.000000000000000000 ) ) ;
#220 =( LENGTH_UNIT ( ) NAMED_UNIT ( * ) SI_UNIT ( .MILLI., .METRE. ) );
#221 = DIRECTION ( 'NONE',  ( 1.000000000000000000, 0.0000000000000000000, 0.0000000000000000000 ) ) ;
#222 = AXIS2_PLACEMENT_3D ( 'NONE', #169, #203, #221 ) ;
#223 = CALENDAR_DATE ( 2021, 7, 10 ) ;
ENDSEC;
END-ISO-10303-21;
