ISO-10303-21;
HEADER;
FILE_DESCRIPTION (( 'STEP AP203' ),
    '1' );
FILE_NAME ('37006.step',
    '2021-10-07T13:47:09',
    ( '' ),
    ( '' ),
    'SwSTEP 2.0',
    'SolidWorks 2019',
    '' );
FILE_SCHEMA (( 'CONFIG_CONTROL_DESIGN' ));
ENDSEC;

DATA;
#1 = PRODUCT_DEFINITION_SHAPE ( 'NONE', 'NONE',  #39 ) ;
#2 = CC_DESIGN_PERSON_AND_ORGANIZATION_ASSIGNMENT ( #114, #76, ( #17 ) ) ;
#3 = CIRCLE ( 'NONE', #56, 0.5349999999999989209 ) ;
#4 = DESIGN_CONTEXT ( 'detailed design', #187, 'design' ) ;
#5 = CARTESIAN_POINT ( 'NONE',  ( 1.122373096640556522E-15, 0.5349999999999989209, 0.3214604311797477076 ) ) ;
#6 = APPROVAL_PERSON_ORGANIZATION ( #218, #41, #11 ) ;
#7 = CALENDAR_DATE ( 2021, 7, 10 ) ;
#8 = APPROVAL_STATUS ( 'not_yet_approved' ) ;
#9 = EDGE_LOOP ( 'NONE', ( #105 ) ) ;
#10 = AXIS2_PLACEMENT_3D ( 'NONE', #211, #35, #181 ) ;
#11 = APPROVAL_ROLE ( '' ) ;
#12 = EDGE_LOOP ( 'NONE', ( #125 ) ) ;
#13 = APPROVAL_ROLE ( '' ) ;
#14 = APPROVAL_STATUS ( 'not_yet_approved' ) ;
#15 = DIRECTION ( 'NONE',  ( 0.0000000000000000000, 1.000000000000000000, 0.0000000000000000000 ) ) ;
#16 = CIRCLE ( 'NONE', #142, 0.5500000000000001554 ) ;
#17 = PRODUCT_DEFINITION_FORMATION_WITH_SPECIFIED_SOURCE ( 'ANY', '', #87, .NOT_KNOWN. ) ;
#18 = CARTESIAN_POINT ( 'NONE',  ( 1.047444401652940007E-13, -3.673940397442059178E-15, 30.00000000000000000 ) ) ;
#19 = FACE_OUTER_BOUND ( 'NONE', #169, .T. ) ;
#20 = ORIENTED_EDGE ( 'NONE', *, *, #189, .F. ) ;
#21 = FACE_OUTER_BOUND ( 'NONE', #63, .T. ) ;
#22 = CONICAL_SURFACE ( 'NONE', #221, 0.5349999999999989209, 1.029744258676649649 ) ;
#23 = ADVANCED_FACE ( 'NONE', ( #194, #32 ), #46, .T. ) ;
#24 = LOCAL_TIME ( 15, 47, 9.000000000000000000, #29 ) ;
#25 = CALENDAR_DATE ( 2021, 7, 10 ) ;
#26 = FACE_OUTER_BOUND ( 'NONE', #80, .T. ) ;
#27 = AXIS2_PLACEMENT_3D ( 'NONE', #124, #68, #192 ) ;
#28 = PERSON_AND_ORGANIZATION_ROLE ( 'design_owner' ) ;
#29 = COORDINATED_UNIVERSAL_TIME_OFFSET ( 1, 0, .AHEAD. ) ;
#30 = CARTESIAN_POINT ( 'NONE',  ( 1.040461438975253740E-13, -3.649447461459112464E-15, 29.80000000000000071 ) ) ;
#31 = CARTESIAN_POINT ( 'NONE',  ( 3.272352801018750813E-14, -1.147786854497788699E-15, 9.372390923627307302 ) ) ;
#32 = FACE_OUTER_BOUND ( 'NONE', #151, .T. ) ;
#33 = DIRECTION ( 'NONE',  ( -3.491481338843133355E-15, 1.224646799147353207E-16, -1.000000000000000000 ) ) ;
#34 = MANIFOLD_SOLID_BREP ( 'Corps-Déplacer/Copier1[2]', #37 ) ;
#35 = DIRECTION ( 'NONE',  ( 3.491481338843133355E-15, -1.224646799147353207E-16, 1.000000000000000000 ) ) ;
#36 = ADVANCED_FACE ( 'NONE', ( #206, #137 ), #175, .T. ) ;
#37 = CLOSED_SHELL ( 'NONE', ( #171, #36, #222 ) ) ;
#38 = SECURITY_CLASSIFICATION ( '', '', #64 ) ;
#39 = PRODUCT_DEFINITION ( 'UNKNOWN', '', #17, #4 ) ;
#40 =( NAMED_UNIT ( * ) PLANE_ANGLE_UNIT ( ) SI_UNIT ( $, .RADIAN. ) );
#41 = APPROVAL ( #48, 'UNSPECIFIED' ) ;
#42 = PLANE ( 'NONE',  #148 ) ;
#43 = DATE_TIME_ROLE ( 'creation_date' ) ;
#44 = CARTESIAN_POINT ( 'NONE',  ( 1.122373096640556325E-15, -3.936754880968059689E-17, 0.3214604311797476521 ) ) ;
#45 = APPLICATION_PROTOCOL_DEFINITION ( 'international standard', 'config_control_design', 1994, #89 ) ;
#46 = CYLINDRICAL_SURFACE ( 'NONE', #27, 0.7499999999999986677 ) ;
#47 = CALENDAR_DATE ( 2021, 7, 10 ) ;
#48 = APPROVAL_STATUS ( 'not_yet_approved' ) ;
#49 = CARTESIAN_POINT ( 'NONE',  ( 1.040461438975253740E-13, 0.7499999999999963363, 29.80000000000000071 ) ) ;
#50 = DATE_TIME_ROLE ( 'classification_date' ) ;
#51 = CARTESIAN_POINT ( 'NONE',  ( 3.142333204958820020E-14, 4.011857418620450490E-33, 9.000000000000000000 ) ) ;
#52 = CARTESIAN_POINT ( 'NONE',  ( 0.0000000000000000000, 0.0000000000000000000, 0.0000000000000000000 ) ) ;
#53 = FACE_OUTER_BOUND ( 'NONE', #138, .T. ) ;
#54 = EDGE_LOOP ( 'NONE', ( #69 ) ) ;
#55 = CC_DESIGN_APPROVAL ( #178, ( #17 ) ) ;
#56 = AXIS2_PLACEMENT_3D ( 'NONE', #44, #134, #78 ) ;
#57 = LOCAL_TIME ( 15, 47, 9.000000000000000000, #205 ) ;
#58 = FACE_OUTER_BOUND ( 'NONE', #104, .T. ) ;
#59 = ADVANCED_FACE ( 'NONE', ( #190, #21 ), #168, .T. ) ;
#60 = CARTESIAN_POINT ( 'NONE',  ( 1.122373096640556325E-15, -3.936754880968059689E-17, 0.3214604311797476521 ) ) ;
#61 = APPROVAL_DATE_TIME ( #145, #65 ) ;
#62 = APPROVAL_ROLE ( '' ) ;
#63 = EDGE_LOOP ( 'NONE', ( #97 ) ) ;
#64 = SECURITY_CLASSIFICATION_LEVEL ( 'unclassified' ) ;
#65 = APPROVAL ( #14, 'UNSPECIFIED' ) ;
#66 = AXIS2_PLACEMENT_3D ( 'NONE', #108, #202, #117 ) ;
#67 = APPROVAL_DATE_TIME ( #172, #178 ) ;
#68 = DIRECTION ( 'NONE',  ( -3.491481338843133355E-15, 1.224646799147353207E-16, -1.000000000000000000 ) ) ;
#69 = ORIENTED_EDGE ( 'NONE', *, *, #84, .T. ) ;
#70 = ORIENTED_EDGE ( 'NONE', *, *, #146, .T. ) ;
#71 = AXIS2_PLACEMENT_3D ( 'NONE', #92, #93, #161 ) ;
#72 = DIRECTION ( 'NONE',  ( 3.491481338843133355E-15, -1.224646799147353207E-16, 1.000000000000000000 ) ) ;
#73 = PRODUCT_RELATED_PRODUCT_CATEGORY ( 'detail', '', ( #87 ) ) ;
#74 = CARTESIAN_POINT ( 'NONE',  ( 1.047444401652940007E-13, 4.124339402320053683E-33, 30.00000000000000000 ) ) ;
#75 = PERSON_AND_ORGANIZATION_ROLE ( 'classification_officer' ) ;
#76 = PERSON_AND_ORGANIZATION_ROLE ( 'creator' ) ;
#77 = ORIENTED_EDGE ( 'NONE', *, *, #106, .F. ) ;
#78 = DIRECTION ( 'NONE',  ( 3.599869054929420229E-31, 1.000000000000000000, 1.013273058397669784E-16 ) ) ;
#79 = DATE_AND_TIME ( #47, #57 ) ;
#80 = EDGE_LOOP ( 'NONE', ( #86 ) ) ;
#81 = CARTESIAN_POINT ( 'NONE',  ( 3.142333204958820020E-14, 0.5349999999999985878, 9.000000000000000000 ) ) ;
#82 = CALENDAR_DATE ( 2021, 7, 10 ) ;
#83 = CC_DESIGN_APPROVAL ( #65, ( #38 ) ) ;
#84 = EDGE_CURVE ( 'NONE', #195, #195, #219, .T. ) ;
#85 = DIRECTION ( 'NONE',  ( -4.275831445896958607E-31, -1.000000000000000000, -1.224646799147353207E-16 ) ) ;
#86 = ORIENTED_EDGE ( 'NONE', *, *, #164, .F. ) ;
#87 = PRODUCT ( '37006', '37006', '', ( #136 ) ) ;
#88 = CARTESIAN_POINT ( 'NONE',  ( 3.142333204958820020E-14, -1.102182119232617714E-15, 9.000000000000000000 ) ) ;
#89 = APPLICATION_CONTEXT ( 'configuration controlled 3d designs of mechanical parts and assemblies' ) ;
#90 = AXIS2_PLACEMENT_3D ( 'NONE', #31, #72, #141 ) ;
#91 = CC_DESIGN_SECURITY_CLASSIFICATION ( #38, ( #17 ) ) ;
#92 = CARTESIAN_POINT ( 'NONE',  ( 1.047444401652940007E-13, -3.673940397442059178E-15, 30.00000000000000000 ) ) ;
#93 = DIRECTION ( 'NONE',  ( -3.491481338843133355E-15, 1.224646799147353207E-16, -1.000000000000000000 ) ) ;
#94 = APPLICATION_PROTOCOL_DEFINITION ( 'international standard', 'config_control_design', 1994, #187 ) ;
#95 = EDGE_LOOP ( 'NONE', ( #77 ) ) ;
#96 =( NAMED_UNIT ( * ) SI_UNIT ( $, .STERADIAN. ) SOLID_ANGLE_UNIT ( ) );
#97 = ORIENTED_EDGE ( 'NONE', *, *, #106, .T. ) ;
#98 = CIRCLE ( 'NONE', #103, 0.7500000000000000000 ) ;
#99 = DATE_AND_TIME ( #166, #112 ) ;
#100 = UNCERTAINTY_MEASURE_WITH_UNIT (LENGTH_MEASURE( 1.000000000000000082E-05 ), #196, 'distance_accuracy_value', 'NONE');
#101 = DATE_AND_TIME ( #25, #24 ) ;
#102 = CC_DESIGN_DATE_AND_TIME_ASSIGNMENT ( #79, #50, ( #38 ) ) ;
#103 = AXIS2_PLACEMENT_3D ( 'NONE', #30, #33, #15 ) ;
#104 = EDGE_LOOP ( 'NONE', ( #207 ) ) ;
#105 = ORIENTED_EDGE ( 'NONE', *, *, #126, .F. ) ;
#106 = EDGE_CURVE ( 'NONE', #191, #191, #157, .T. ) ;
#107 = CARTESIAN_POINT ( 'NONE',  ( 3.142333204958820020E-14, 0.5349999999999985878, 9.000000000000000000 ) ) ;
#108 = CARTESIAN_POINT ( 'NONE',  ( 3.142333204958820020E-14, -1.102182119232617714E-15, 9.000000000000000000 ) ) ;
#109 = ORGANIZATION ( 'UNSPECIFIED', 'UNSPECIFIED', '' ) ;
#110 = VERTEX_POINT ( 'NONE', #49 ) ;
#111 = CC_DESIGN_PERSON_AND_ORGANIZATION_ASSIGNMENT ( #115, #75, ( #38 ) ) ;
#112 = LOCAL_TIME ( 15, 47, 9.000000000000000000, #130 ) ;
#113 = CLOSED_SHELL ( 'NONE', ( #128, #59, #23, #160, #212 ) ) ;
#114 = PERSON_AND_ORGANIZATION ( #173, #109 ) ;
#115 = PERSON_AND_ORGANIZATION ( #173, #109 ) ;
#116 = CC_DESIGN_PERSON_AND_ORGANIZATION_ASSIGNMENT ( #147, #201, ( #17 ) ) ;
#117 = DIRECTION ( 'NONE',  ( 0.0000000000000000000, 1.000000000000000000, 0.0000000000000000000 ) ) ;
#118 = CARTESIAN_POINT ( 'NONE',  ( 0.0000000000000000000, 0.0000000000000000000, 0.0000000000000000000 ) ) ;
#119 = DIRECTION ( 'NONE',  ( 3.491481338843133355E-15, -1.224646799147353207E-16, 1.000000000000000000 ) ) ;
#120 = DIRECTION ( 'NONE',  ( 4.275831445896958607E-31, 1.000000000000000000, 1.224646799147353207E-16 ) ) ;
#121 = CONICAL_SURFACE ( 'NONE', #71, 0.5500000000000001554, 0.7853981633974510546 ) ;
#122 = CC_DESIGN_APPROVAL ( #41, ( #39 ) ) ;
#123 = EDGE_LOOP ( 'NONE', ( #20 ) ) ;
#124 = CARTESIAN_POINT ( 'NONE',  ( 0.0000000000000000000, 0.0000000000000000000, 0.0000000000000000000 ) ) ;
#125 = ORIENTED_EDGE ( 'NONE', *, *, #146, .F. ) ;
#126 = EDGE_CURVE ( 'NONE', #209, #209, #16, .T. ) ;
#127 = CARTESIAN_POINT ( 'NONE',  ( 1.047444401652940007E-13, 0.5499999999999964917, 30.00000000000000000 ) ) ;
#128 = ADVANCED_FACE ( 'NONE', ( #53 ), #158, .F. ) ;
#129 = DIRECTION ( 'NONE',  ( -3.599869054929420229E-31, -1.000000000000000000, -1.013273058397669784E-16 ) ) ;
#130 = COORDINATED_UNIVERSAL_TIME_OFFSET ( 1, 0, .AHEAD. ) ;
#131 = CC_DESIGN_PERSON_AND_ORGANIZATION_ASSIGNMENT ( #170, #186, ( #39 ) ) ;
#132 = COORDINATED_UNIVERSAL_TIME_OFFSET ( 1, 0, .AHEAD. ) ;
#133 = DIRECTION ( 'NONE',  ( 0.0000000000000000000, 1.000000000000000000, 0.0000000000000000000 ) ) ;
#134 = DIRECTION ( 'NONE',  ( -3.491481338843133355E-15, 1.224646799147353207E-16, -1.000000000000000000 ) ) ;
#135 = PLANE ( 'NONE',  #183 ) ;
#136 = MECHANICAL_CONTEXT ( 'NONE', #89, 'mechanical' ) ;
#137 = FACE_OUTER_BOUND ( 'NONE', #54, .T. ) ;
#138 = EDGE_LOOP ( 'NONE', ( #70 ) ) ;
#139 = CARTESIAN_POINT ( 'NONE',  ( 3.272352801018750813E-14, 0.7499999999999963363, 9.372390923627307302 ) ) ;
#140 = DIRECTION ( 'NONE',  ( 0.0000000000000000000, 1.000000000000000000, 0.0000000000000000000 ) ) ;
#141 = DIRECTION ( 'NONE',  ( 0.0000000000000000000, -1.000000000000000000, 0.0000000000000000000 ) ) ;
#142 = AXIS2_PLACEMENT_3D ( 'NONE', #18, #220, #140 ) ;
#143 = APPROVAL_PERSON_ORGANIZATION ( #150, #65, #13 ) ;
#144 = DIRECTION ( 'NONE',  ( 4.275831445896958607E-31, 1.000000000000000000, 1.224646799147353207E-16 ) ) ;
#145 = DATE_AND_TIME ( #82, #184 ) ;
#146 = EDGE_CURVE ( 'NONE', #155, #155, #208, .T. ) ;
#147 = PERSON_AND_ORGANIZATION ( #173, #109 ) ;
#148 = AXIS2_PLACEMENT_3D ( 'NONE', #51, #119, #85 ) ;
#149 = DIRECTION ( 'NONE',  ( 0.0000000000000000000, 1.000000000000000000, 0.0000000000000000000 ) ) ;
#150 = PERSON_AND_ORGANIZATION ( #173, #109 ) ;
#151 = EDGE_LOOP ( 'NONE', ( #177 ) ) ;
#152 = DIRECTION ( 'NONE',  ( 3.491481338843133355E-15, -1.224646799147353207E-16, 1.000000000000000000 ) ) ;
#153 = ADVANCED_BREP_SHAPE_REPRESENTATION ( '37006', ( #188, #34, #204 ), #213 ) ;
#154 = APPROVAL_DATE_TIME ( #99, #41 ) ;
#155 = VERTEX_POINT ( 'NONE', #81 ) ;
#156 = EDGE_LOOP ( 'NONE', ( #210 ) ) ;
#157 = CIRCLE ( 'NONE', #199, 0.7499999999999975575 ) ;
#158 = PLANE ( 'NONE',  #10 ) ;
#159 = LOCAL_TIME ( 15, 47, 9.000000000000000000, #132 ) ;
#160 = ADVANCED_FACE ( 'NONE', ( #26, #217 ), #121, .T. ) ;
#161 = DIRECTION ( 'NONE',  ( 0.0000000000000000000, 1.000000000000000000, 0.0000000000000000000 ) ) ;
#162 = AXIS2_PLACEMENT_3D ( 'NONE', #88, #174, #149 ) ;
#163 = PERSON_AND_ORGANIZATION ( #173, #109 ) ;
#164 = EDGE_CURVE ( 'NONE', #110, #110, #98, .T. ) ;
#165 = DIRECTION ( 'NONE',  ( -3.491481338843133355E-15, 1.224646799147353207E-16, -1.000000000000000000 ) ) ;
#166 = CALENDAR_DATE ( 2021, 7, 10 ) ;
#167 = DIRECTION ( 'NONE',  ( 0.0000000000000000000, 0.0000000000000000000, 1.000000000000000000 ) ) ;
#168 = CONICAL_SURFACE ( 'NONE', #90, 0.7499999999999975575, 0.5235987755982945968 ) ;
#169 = EDGE_LOOP ( 'NONE', ( #216 ) ) ;
#170 = PERSON_AND_ORGANIZATION ( #173, #109 ) ;
#171 = ADVANCED_FACE ( 'NONE', ( #19 ), #22, .T. ) ;
#172 = DATE_AND_TIME ( #7, #159 ) ;
#173 = PERSON ( 'UNSPECIFIED', 'UNSPECIFIED', 'UNSPECIFIED', ('UNSPECIFIED'), ('UNSPECIFIED'), ('UNSPECIFIED') ) ;
#174 = DIRECTION ( 'NONE',  ( -3.491481338843133355E-15, 1.224646799147353207E-16, -1.000000000000000000 ) ) ;
#175 = CYLINDRICAL_SURFACE ( 'NONE', #176, 0.5349999999999992539 ) ;
#176 = AXIS2_PLACEMENT_3D ( 'NONE', #52, #193, #120 ) ;
#177 = ORIENTED_EDGE ( 'NONE', *, *, #164, .T. ) ;
#178 = APPROVAL ( #8, 'UNSPECIFIED' ) ;
#179 = APPROVAL_PERSON_ORGANIZATION ( #180, #178, #62 ) ;
#180 = PERSON_AND_ORGANIZATION ( #173, #109 ) ;
#181 = DIRECTION ( 'NONE',  ( -4.275831445896958607E-31, -1.000000000000000000, -1.224646799147353207E-16 ) ) ;
#182 = DIRECTION ( 'NONE',  ( 1.000000000000000000, 0.0000000000000000000, 0.0000000000000000000 ) ) ;
#183 = AXIS2_PLACEMENT_3D ( 'NONE', #74, #165, #144 ) ;
#184 = LOCAL_TIME ( 15, 47, 9.000000000000000000, #215 ) ;
#185 = CC_DESIGN_PERSON_AND_ORGANIZATION_ASSIGNMENT ( #163, #28, ( #87 ) ) ;
#186 = PERSON_AND_ORGANIZATION_ROLE ( 'creator' ) ;
#187 = APPLICATION_CONTEXT ( 'configuration controlled 3d designs of mechanical parts and assemblies' ) ;
#188 = MANIFOLD_SOLID_BREP ( 'Corps-Déplacer/Copier1[1]', #113 ) ;
#189 = EDGE_CURVE ( 'NONE', #198, #198, #3, .T. ) ;
#190 = FACE_BOUND ( 'NONE', #12, .T. ) ;
#191 = VERTEX_POINT ( 'NONE', #139 ) ;
#192 = DIRECTION ( 'NONE',  ( 4.275831445896959482E-31, 1.000000000000000000, 1.224646799147353207E-16 ) ) ;
#193 = DIRECTION ( 'NONE',  ( -3.491481338843133355E-15, 1.224646799147353207E-16, -1.000000000000000000 ) ) ;
#194 = FACE_OUTER_BOUND ( 'NONE', #95, .T. ) ;
#195 = VERTEX_POINT ( 'NONE', #107 ) ;
#196 =( LENGTH_UNIT ( ) NAMED_UNIT ( * ) SI_UNIT ( .MILLI., .METRE. ) );
#197 = CC_DESIGN_DATE_AND_TIME_ASSIGNMENT ( #101, #43, ( #39 ) ) ;
#198 = VERTEX_POINT ( 'NONE', #5 ) ;
#199 = AXIS2_PLACEMENT_3D ( 'NONE', #223, #214, #133 ) ;
#200 = FACE_OUTER_BOUND ( 'NONE', #9, .T. ) ;
#201 = PERSON_AND_ORGANIZATION_ROLE ( 'design_supplier' ) ;
#202 = DIRECTION ( 'NONE',  ( -3.491481338843133355E-15, 1.224646799147353207E-16, -1.000000000000000000 ) ) ;
#203 = SHAPE_DEFINITION_REPRESENTATION ( #1, #153 ) ;
#204 = AXIS2_PLACEMENT_3D ( 'NONE', #118, #167, #182 ) ;
#205 = COORDINATED_UNIVERSAL_TIME_OFFSET ( 1, 0, .AHEAD. ) ;
#206 = FACE_OUTER_BOUND ( 'NONE', #123, .T. ) ;
#207 = ORIENTED_EDGE ( 'NONE', *, *, #84, .F. ) ;
#208 = CIRCLE ( 'NONE', #66, 0.5349999999999996980 ) ;
#209 = VERTEX_POINT ( 'NONE', #127 ) ;
#210 = ORIENTED_EDGE ( 'NONE', *, *, #126, .T. ) ;
#211 = CARTESIAN_POINT ( 'NONE',  ( 3.142333204958820020E-14, 4.011857418620450490E-33, 9.000000000000000000 ) ) ;
#212 = ADVANCED_FACE ( 'NONE', ( #200 ), #135, .F. ) ;
#213 =( GEOMETRIC_REPRESENTATION_CONTEXT ( 3 ) GLOBAL_UNCERTAINTY_ASSIGNED_CONTEXT ( ( #100 ) ) GLOBAL_UNIT_ASSIGNED_CONTEXT ( ( #196, #40, #96 ) ) REPRESENTATION_CONTEXT ( 'NONE', 'WORKASPACE' ) );
#214 = DIRECTION ( 'NONE',  ( -3.491481338843133355E-15, 1.224646799147353207E-16, -1.000000000000000000 ) ) ;
#215 = COORDINATED_UNIVERSAL_TIME_OFFSET ( 1, 0, .AHEAD. ) ;
#216 = ORIENTED_EDGE ( 'NONE', *, *, #189, .T. ) ;
#217 = FACE_BOUND ( 'NONE', #156, .T. ) ;
#218 = PERSON_AND_ORGANIZATION ( #173, #109 ) ;
#219 = CIRCLE ( 'NONE', #162, 0.5349999999999996980 ) ;
#220 = DIRECTION ( 'NONE',  ( -3.491481338843133355E-15, 1.224646799147353207E-16, -1.000000000000000000 ) ) ;
#221 = AXIS2_PLACEMENT_3D ( 'NONE', #60, #152, #129 ) ;
#222 = ADVANCED_FACE ( 'NONE', ( #58 ), #42, .T. ) ;
#223 = CARTESIAN_POINT ( 'NONE',  ( 3.272352801018750813E-14, -1.147786854497788699E-15, 9.372390923627307302 ) ) ;
ENDSEC;
END-ISO-10303-21;
