ISO-10303-21;
HEADER;
FILE_DESCRIPTION (( 'STEP AP203' ),
    '1' );
FILE_NAME ('37005.step',
    '2021-10-07T13:47:09',
    ( '' ),
    ( '' ),
    'SwSTEP 2.0',
    'SolidWorks 2019',
    '' );
FILE_SCHEMA (( 'CONFIG_CONTROL_DESIGN' ));
ENDSEC;

DATA;
#1 = ORIENTED_EDGE ( 'NONE', *, *, #154, .T. ) ;
#2 = ADVANCED_FACE ( 'NONE', ( #43, #119 ), #7, .T. ) ;
#3 = APPROVAL_PERSON_ORGANIZATION ( #187, #215, #91 ) ;
#4 = AXIS2_PLACEMENT_3D ( 'NONE', #166, #129, #112 ) ;
#5 = EDGE_CURVE ( 'NONE', #22, #22, #16, .T. ) ;
#6 = DIRECTION ( 'NONE',  ( 0.0000000000000000000, 1.000000000000000000, 0.0000000000000000000 ) ) ;
#7 = CONICAL_SURFACE ( 'NONE', #159, 0.7499999999999975575, 0.5235987755982925984 ) ;
#8 = FACE_OUTER_BOUND ( 'NONE', #184, .T. ) ;
#9 = DIRECTION ( 'NONE',  ( 3.491481338843133355E-15, -1.224646799147353207E-16, 1.000000000000000000 ) ) ;
#10 = CYLINDRICAL_SURFACE ( 'NONE', #102, 0.7499999999999986677 ) ;
#11 = CALENDAR_DATE ( 2021, 7, 10 ) ;
#12 = AXIS2_PLACEMENT_3D ( 'NONE', #29, #122, #186 ) ;
#13 = APPLICATION_PROTOCOL_DEFINITION ( 'international standard', 'config_control_design', 1994, #116 ) ;
#14 = FACE_OUTER_BOUND ( 'NONE', #117, .T. ) ;
#15 = PLANE ( 'NONE',  #197 ) ;
#16 = CIRCLE ( 'NONE', #151, 0.5300000000000003597 ) ;
#17 = EDGE_CURVE ( 'NONE', #178, #178, #138, .T. ) ;
#18 = EDGE_CURVE ( 'NONE', #77, #77, #47, .T. ) ;
#19 = CARTESIAN_POINT ( 'NONE',  ( 3.142333204958820020E-14, -1.102182119232617714E-15, 9.000000000000000000 ) ) ;
#20 = CC_DESIGN_APPROVAL ( #95, ( #165 ) ) ;
#21 = CARTESIAN_POINT ( 'NONE',  ( 1.047444401652940007E-13, -3.673940397442059178E-15, 30.00000000000000000 ) ) ;
#22 = VERTEX_POINT ( 'NONE', #163 ) ;
#23 = DIRECTION ( 'NONE',  ( 1.000000000000000000, 0.0000000000000000000, 0.0000000000000000000 ) ) ;
#24 = DIRECTION ( 'NONE',  ( -3.491481338843133355E-15, 1.224646799147353207E-16, -1.000000000000000000 ) ) ;
#25 = ORIENTED_EDGE ( 'NONE', *, *, #18, .T. ) ;
#26 = MANIFOLD_SOLID_BREP ( 'Corps-Déplacer/Copier1[2]', #134 ) ;
#27 = ORIENTED_EDGE ( 'NONE', *, *, #111, .F. ) ;
#28 = EDGE_LOOP ( 'NONE', ( #25 ) ) ;
#29 = CARTESIAN_POINT ( 'NONE',  ( 3.275376512555028317E-14, -1.148847429736513941E-15, 9.381051177665153062 ) ) ;
#30 = FACE_OUTER_BOUND ( 'NONE', #105, .T. ) ;
#31 = PERSON_AND_ORGANIZATION_ROLE ( 'classification_officer' ) ;
#32 = CYLINDRICAL_SURFACE ( 'NONE', #81, 0.5299999999999996936 ) ;
#33 = AXIS2_PLACEMENT_3D ( 'NONE', #46, #190, #127 ) ;
#34 = CLOSED_SHELL ( 'NONE', ( #125, #2, #207, #199, #89 ) ) ;
#35 = CC_DESIGN_PERSON_AND_ORGANIZATION_ASSIGNMENT ( #144, #203, ( #118 ) ) ;
#36 = DIRECTION ( 'NONE',  ( 0.0000000000000000000, 1.000000000000000000, 0.0000000000000000000 ) ) ;
#37 = FACE_OUTER_BOUND ( 'NONE', #62, .T. ) ;
#38 = CARTESIAN_POINT ( 'NONE',  ( 1.047444401652940007E-13, -3.673940397442059178E-15, 30.00000000000000000 ) ) ;
#39 = ADVANCED_FACE ( 'NONE', ( #14, #188 ), #32, .T. ) ;
#40 = PERSON_AND_ORGANIZATION_ROLE ( 'design_owner' ) ;
#41 = AXIS2_PLACEMENT_3D ( 'NONE', #19, #173, #223 ) ;
#42 = PERSON_AND_ORGANIZATION_ROLE ( 'creator' ) ;
#43 = FACE_BOUND ( 'NONE', #65, .T. ) ;
#44 = DIRECTION ( 'NONE',  ( 0.0000000000000000000, -1.000000000000000000, 0.0000000000000000000 ) ) ;
#45 = DATE_AND_TIME ( #121, #82 ) ;
#46 = CARTESIAN_POINT ( 'NONE',  ( 1.040461438975253740E-13, -3.649447461459112464E-15, 29.80000000000000071 ) ) ;
#47 = CIRCLE ( 'NONE', #41, 0.5300000000000003597 ) ;
#48 =( GEOMETRIC_REPRESENTATION_CONTEXT ( 3 ) GLOBAL_UNCERTAINTY_ASSIGNED_CONTEXT ( ( #74 ) ) GLOBAL_UNIT_ASSIGNED_CONTEXT ( ( #150, #167, #97 ) ) REPRESENTATION_CONTEXT ( 'NONE', 'WORKASPACE' ) );
#49 = PRODUCT_RELATED_PRODUCT_CATEGORY ( 'detail', '', ( #135 ) ) ;
#50 = EDGE_LOOP ( 'NONE', ( #85 ) ) ;
#51 = VERTEX_POINT ( 'NONE', #96 ) ;
#52 = ADVANCED_BREP_SHAPE_REPRESENTATION ( '37005', ( #108, #26, #73 ), #48 ) ;
#53 = CIRCLE ( 'NONE', #33, 0.7500000000000000000 ) ;
#54 = DIRECTION ( 'NONE',  ( -3.491481338843133355E-15, 1.224646799147353207E-16, -1.000000000000000000 ) ) ;
#55 = PLANE ( 'NONE',  #180 ) ;
#56 = FACE_OUTER_BOUND ( 'NONE', #61, .T. ) ;
#57 = AXIS2_PLACEMENT_3D ( 'NONE', #78, #24, #191 ) ;
#58 = ORIENTED_EDGE ( 'NONE', *, *, #18, .F. ) ;
#59 = COORDINATED_UNIVERSAL_TIME_OFFSET ( 1, 0, .AHEAD. ) ;
#60 = APPROVAL ( #175, 'UNSPECIFIED' ) ;
#61 = EDGE_LOOP ( 'NONE', ( #136 ) ) ;
#62 = EDGE_LOOP ( 'NONE', ( #88 ) ) ;
#63 = CALENDAR_DATE ( 2021, 7, 10 ) ;
#64 = PERSON_AND_ORGANIZATION_ROLE ( 'creator' ) ;
#65 = EDGE_LOOP ( 'NONE', ( #58 ) ) ;
#66 = PERSON ( 'UNSPECIFIED', 'UNSPECIFIED', 'UNSPECIFIED', ('UNSPECIFIED'), ('UNSPECIFIED'), ('UNSPECIFIED') ) ;
#67 = DATE_AND_TIME ( #11, #128 ) ;
#68 = CARTESIAN_POINT ( 'NONE',  ( 1.047444401652940007E-13, 4.124339402320053683E-33, 30.00000000000000000 ) ) ;
#69 = LOCAL_TIME ( 15, 47, 9.000000000000000000, #205 ) ;
#70 = SECURITY_CLASSIFICATION_LEVEL ( 'unclassified' ) ;
#71 = FACE_OUTER_BOUND ( 'NONE', #79, .T. ) ;
#72 = PRODUCT_DEFINITION ( 'UNKNOWN', '', #118, #126 ) ;
#73 = AXIS2_PLACEMENT_3D ( 'NONE', #212, #182, #23 ) ;
#74 = UNCERTAINTY_MEASURE_WITH_UNIT (LENGTH_MEASURE( 1.000000000000000082E-05 ), #150, 'distance_accuracy_value', 'NONE');
#75 = CARTESIAN_POINT ( 'NONE',  ( 0.0000000000000000000, 0.0000000000000000000, 0.0000000000000000000 ) ) ;
#76 = CC_DESIGN_SECURITY_CLASSIFICATION ( #165, ( #118 ) ) ;
#77 = VERTEX_POINT ( 'NONE', #193 ) ;
#78 = CARTESIAN_POINT ( 'NONE',  ( 1.111883628447653845E-15, -3.899962779276769648E-17, 0.3184561280846098241 ) ) ;
#79 = EDGE_LOOP ( 'NONE', ( #155 ) ) ;
#80 = COORDINATED_UNIVERSAL_TIME_OFFSET ( 1, 0, .AHEAD. ) ;
#81 = AXIS2_PLACEMENT_3D ( 'NONE', #92, #176, #158 ) ;
#82 = LOCAL_TIME ( 15, 47, 9.000000000000000000, #185 ) ;
#83 = DATE_AND_TIME ( #63, #98 ) ;
#84 = EDGE_LOOP ( 'NONE', ( #196 ) ) ;
#85 = ORIENTED_EDGE ( 'NONE', *, *, #17, .T. ) ;
#86 = CC_DESIGN_APPROVAL ( #215, ( #72 ) ) ;
#87 = PERSON_AND_ORGANIZATION ( #66, #93 ) ;
#88 = ORIENTED_EDGE ( 'NONE', *, *, #17, .F. ) ;
#89 = ADVANCED_FACE ( 'NONE', ( #30 ), #124, .F. ) ;
#90 = DIRECTION ( 'NONE',  ( 3.491481338843133355E-15, -1.224646799147353207E-16, 1.000000000000000000 ) ) ;
#91 = APPROVAL_ROLE ( '' ) ;
#92 = CARTESIAN_POINT ( 'NONE',  ( 0.0000000000000000000, 0.0000000000000000000, 0.0000000000000000000 ) ) ;
#93 = ORGANIZATION ( 'UNSPECIFIED', 'UNSPECIFIED', '' ) ;
#94 = EDGE_LOOP ( 'NONE', ( #27 ) ) ;
#95 = APPROVAL ( #140, 'UNSPECIFIED' ) ;
#96 = CARTESIAN_POINT ( 'NONE',  ( 1.040461438975253740E-13, 0.7499999999999963363, 29.80000000000000071 ) ) ;
#97 =( NAMED_UNIT ( * ) SI_UNIT ( $, .STERADIAN. ) SOLID_ANGLE_UNIT ( ) );
#98 = LOCAL_TIME ( 15, 47, 9.000000000000000000, #133 ) ;
#99 = MECHANICAL_CONTEXT ( 'NONE', #103, 'mechanical' ) ;
#100 = DIRECTION ( 'NONE',  ( -3.491481338843133355E-15, 1.224646799147353207E-16, -1.000000000000000000 ) ) ;
#101 = CALENDAR_DATE ( 2021, 7, 10 ) ;
#102 = AXIS2_PLACEMENT_3D ( 'NONE', #75, #54, #194 ) ;
#103 = APPLICATION_CONTEXT ( 'configuration controlled 3d designs of mechanical parts and assemblies' ) ;
#104 = ADVANCED_FACE ( 'NONE', ( #71 ), #15, .T. ) ;
#105 = EDGE_LOOP ( 'NONE', ( #171 ) ) ;
#106 = PERSON_AND_ORGANIZATION ( #66, #93 ) ;
#107 = DIRECTION ( 'NONE',  ( 0.0000000000000000000, 1.000000000000000000, 0.0000000000000000000 ) ) ;
#108 = MANIFOLD_SOLID_BREP ( 'Corps-Déplacer/Copier1[1]', #34 ) ;
#109 = CONICAL_SURFACE ( 'NONE', #4, 0.5299999999999989164, 1.029744258676649649 ) ;
#110 = PRODUCT_DEFINITION_SHAPE ( 'NONE', 'NONE',  #72 ) ;
#111 = EDGE_CURVE ( 'NONE', #51, #51, #53, .T. ) ;
#112 = DIRECTION ( 'NONE',  ( -3.633830083749509137E-31, -1.000000000000000000, -1.022832238193874226E-16 ) ) ;
#113 = APPLICATION_PROTOCOL_DEFINITION ( 'international standard', 'config_control_design', 1994, #103 ) ;
#114 = VERTEX_POINT ( 'NONE', #132 ) ;
#115 = APPROVAL_ROLE ( '' ) ;
#116 = APPLICATION_CONTEXT ( 'configuration controlled 3d designs of mechanical parts and assemblies' ) ;
#117 = EDGE_LOOP ( 'NONE', ( #156 ) ) ;
#118 = PRODUCT_DEFINITION_FORMATION_WITH_SPECIFIED_SOURCE ( 'ANY', '', #135, .NOT_KNOWN. ) ;
#119 = FACE_OUTER_BOUND ( 'NONE', #50, .T. ) ;
#120 = CC_DESIGN_DATE_AND_TIME_ASSIGNMENT ( #83, #153, ( #165 ) ) ;
#121 = CALENDAR_DATE ( 2021, 7, 10 ) ;
#122 = DIRECTION ( 'NONE',  ( -3.491481338843133355E-15, 1.224646799147353207E-16, -1.000000000000000000 ) ) ;
#123 = APPROVAL_STATUS ( 'not_yet_approved' ) ;
#124 = PLANE ( 'NONE',  #148 ) ;
#125 = ADVANCED_FACE ( 'NONE', ( #213 ), #55, .F. ) ;
#126 = DESIGN_CONTEXT ( 'detailed design', #116, 'design' ) ;
#127 = DIRECTION ( 'NONE',  ( 0.0000000000000000000, 1.000000000000000000, 0.0000000000000000000 ) ) ;
#128 = LOCAL_TIME ( 15, 47, 9.000000000000000000, #80 ) ;
#129 = DIRECTION ( 'NONE',  ( 3.491481338843133355E-15, -1.224646799147353207E-16, 1.000000000000000000 ) ) ;
#130 = DIRECTION ( 'NONE',  ( -4.275831445896958607E-31, -1.000000000000000000, -1.224646799147353207E-16 ) ) ;
#131 = CARTESIAN_POINT ( 'NONE',  ( 3.275376512555028317E-14, 0.7499999999999963363, 9.381051177665153062 ) ) ;
#132 = CARTESIAN_POINT ( 'NONE',  ( 1.111883628447654042E-15, 0.5299999999999989164, 0.3184561280846098796 ) ) ;
#133 = COORDINATED_UNIVERSAL_TIME_OFFSET ( 1, 0, .AHEAD. ) ;
#134 = CLOSED_SHELL ( 'NONE', ( #168, #39, #104 ) ) ;
#135 = PRODUCT ( '37005', '37005', '', ( #99 ) ) ;
#136 = ORIENTED_EDGE ( 'NONE', *, *, #111, .T. ) ;
#137 = CC_DESIGN_PERSON_AND_ORGANIZATION_ASSIGNMENT ( #146, #31, ( #165 ) ) ;
#138 = CIRCLE ( 'NONE', #12, 0.7499999999999975575 ) ;
#139 = AXIS2_PLACEMENT_3D ( 'NONE', #21, #100, #36 ) ;
#140 = APPROVAL_STATUS ( 'not_yet_approved' ) ;
#141 = CC_DESIGN_PERSON_AND_ORGANIZATION_ASSIGNMENT ( #157, #40, ( #135 ) ) ;
#142 = SHAPE_DEFINITION_REPRESENTATION ( #110, #52 ) ;
#143 = CARTESIAN_POINT ( 'NONE',  ( 3.142333204958820020E-14, -1.102182119232617714E-15, 9.000000000000000000 ) ) ;
#144 = PERSON_AND_ORGANIZATION ( #66, #93 ) ;
#145 = DIRECTION ( 'NONE',  ( -3.491481338843133355E-15, 1.224646799147353207E-16, -1.000000000000000000 ) ) ;
#146 = PERSON_AND_ORGANIZATION ( #66, #93 ) ;
#147 = DIRECTION ( 'NONE',  ( -4.275831445896958607E-31, -1.000000000000000000, -1.224646799147353207E-16 ) ) ;
#148 = AXIS2_PLACEMENT_3D ( 'NONE', #68, #145, #209 ) ;
#149 = FACE_BOUND ( 'NONE', #162, .T. ) ;
#150 =( LENGTH_UNIT ( ) NAMED_UNIT ( * ) SI_UNIT ( .MILLI., .METRE. ) );
#151 = AXIS2_PLACEMENT_3D ( 'NONE', #143, #204, #107 ) ;
#152 = AXIS2_PLACEMENT_3D ( 'NONE', #38, #214, #6 ) ;
#153 = DATE_TIME_ROLE ( 'classification_date' ) ;
#154 = EDGE_CURVE ( 'NONE', #114, #114, #164, .T. ) ;
#155 = ORIENTED_EDGE ( 'NONE', *, *, #5, .F. ) ;
#156 = ORIENTED_EDGE ( 'NONE', *, *, #154, .F. ) ;
#157 = PERSON_AND_ORGANIZATION ( #66, #93 ) ;
#158 = DIRECTION ( 'NONE',  ( 4.275831445896958607E-31, 1.000000000000000000, 1.224646799147352961E-16 ) ) ;
#159 = AXIS2_PLACEMENT_3D ( 'NONE', #206, #90, #44 ) ;
#160 = CALENDAR_DATE ( 2021, 7, 10 ) ;
#161 = DIRECTION ( 'NONE',  ( 3.491481338843133355E-15, -1.224646799147353207E-16, 1.000000000000000000 ) ) ;
#162 = EDGE_LOOP ( 'NONE', ( #220 ) ) ;
#163 = CARTESIAN_POINT ( 'NONE',  ( 3.142333204958820020E-14, 0.5299999999999992495, 9.000000000000000000 ) ) ;
#164 = CIRCLE ( 'NONE', #57, 0.5299999999999989164 ) ;
#165 = SECURITY_CLASSIFICATION ( '', '', #70 ) ;
#166 = CARTESIAN_POINT ( 'NONE',  ( 1.111883628447653845E-15, -3.899962779276769648E-17, 0.3184561280846098241 ) ) ;
#167 =( NAMED_UNIT ( * ) PLANE_ANGLE_UNIT ( ) SI_UNIT ( $, .RADIAN. ) );
#168 = ADVANCED_FACE ( 'NONE', ( #8 ), #109, .T. ) ;
#169 = VERTEX_POINT ( 'NONE', #179 ) ;
#170 = CONICAL_SURFACE ( 'NONE', #152, 0.5500000000000001554, 0.7853981633974510546 ) ;
#171 = ORIENTED_EDGE ( 'NONE', *, *, #202, .F. ) ;
#172 = APPROVAL_ROLE ( '' ) ;
#173 = DIRECTION ( 'NONE',  ( -3.491481338843133355E-15, 1.224646799147353207E-16, -1.000000000000000000 ) ) ;
#174 = CARTESIAN_POINT ( 'NONE',  ( 3.142333204958820020E-14, 3.974363424053909250E-33, 9.000000000000000000 ) ) ;
#175 = APPROVAL_STATUS ( 'not_yet_approved' ) ;
#176 = DIRECTION ( 'NONE',  ( -3.491481338843133355E-15, 1.224646799147353207E-16, -1.000000000000000000 ) ) ;
#177 = CC_DESIGN_DATE_AND_TIME_ASSIGNMENT ( #45, #216, ( #72 ) ) ;
#178 = VERTEX_POINT ( 'NONE', #131 ) ;
#179 = CARTESIAN_POINT ( 'NONE',  ( 1.047444401652940007E-13, 0.5499999999999964917, 30.00000000000000000 ) ) ;
#180 = AXIS2_PLACEMENT_3D ( 'NONE', #211, #9, #130 ) ;
#181 = CIRCLE ( 'NONE', #139, 0.5500000000000001554 ) ;
#182 = DIRECTION ( 'NONE',  ( 0.0000000000000000000, 0.0000000000000000000, 1.000000000000000000 ) ) ;
#183 = APPROVAL_DATE_TIME ( #219, #60 ) ;
#184 = EDGE_LOOP ( 'NONE', ( #1 ) ) ;
#185 = COORDINATED_UNIVERSAL_TIME_OFFSET ( 1, 0, .AHEAD. ) ;
#186 = DIRECTION ( 'NONE',  ( 0.0000000000000000000, 1.000000000000000000, 0.0000000000000000000 ) ) ;
#187 = PERSON_AND_ORGANIZATION ( #66, #93 ) ;
#188 = FACE_OUTER_BOUND ( 'NONE', #84, .T. ) ;
#189 = PERSON_AND_ORGANIZATION ( #66, #93 ) ;
#190 = DIRECTION ( 'NONE',  ( -3.491481338843133355E-15, 1.224646799147353207E-16, -1.000000000000000000 ) ) ;
#191 = DIRECTION ( 'NONE',  ( 3.633830083749509137E-31, 1.000000000000000000, 1.022832238193874226E-16 ) ) ;
#192 = CC_DESIGN_APPROVAL ( #60, ( #118 ) ) ;
#193 = CARTESIAN_POINT ( 'NONE',  ( 3.142333204958820020E-14, 0.5299999999999992495, 9.000000000000000000 ) ) ;
#194 = DIRECTION ( 'NONE',  ( 4.275831445896959482E-31, 1.000000000000000000, 1.224646799147353207E-16 ) ) ;
#195 = FACE_OUTER_BOUND ( 'NONE', #94, .T. ) ;
#196 = ORIENTED_EDGE ( 'NONE', *, *, #5, .T. ) ;
#197 = AXIS2_PLACEMENT_3D ( 'NONE', #174, #161, #147 ) ;
#198 = APPROVAL_PERSON_ORGANIZATION ( #106, #60, #115 ) ;
#199 = ADVANCED_FACE ( 'NONE', ( #195, #149 ), #170, .T. ) ;
#200 = CC_DESIGN_PERSON_AND_ORGANIZATION_ASSIGNMENT ( #189, #42, ( #118 ) ) ;
#201 = APPROVAL_DATE_TIME ( #67, #95 ) ;
#202 = EDGE_CURVE ( 'NONE', #169, #169, #181, .T. ) ;
#203 = PERSON_AND_ORGANIZATION_ROLE ( 'design_supplier' ) ;
#204 = DIRECTION ( 'NONE',  ( -3.491481338843133355E-15, 1.224646799147353207E-16, -1.000000000000000000 ) ) ;
#205 = COORDINATED_UNIVERSAL_TIME_OFFSET ( 1, 0, .AHEAD. ) ;
#206 = CARTESIAN_POINT ( 'NONE',  ( 3.275376512555028317E-14, -1.148847429736513941E-15, 9.381051177665153062 ) ) ;
#207 = ADVANCED_FACE ( 'NONE', ( #37, #56 ), #10, .T. ) ;
#208 = DATE_AND_TIME ( #101, #69 ) ;
#209 = DIRECTION ( 'NONE',  ( 4.275831445896958607E-31, 1.000000000000000000, 1.224646799147353207E-16 ) ) ;
#210 = CC_DESIGN_PERSON_AND_ORGANIZATION_ASSIGNMENT ( #222, #64, ( #72 ) ) ;
#211 = CARTESIAN_POINT ( 'NONE',  ( 3.142333204958820020E-14, 3.974363424053909250E-33, 9.000000000000000000 ) ) ;
#212 = CARTESIAN_POINT ( 'NONE',  ( 0.0000000000000000000, 0.0000000000000000000, 0.0000000000000000000 ) ) ;
#213 = FACE_OUTER_BOUND ( 'NONE', #28, .T. ) ;
#214 = DIRECTION ( 'NONE',  ( -3.491481338843133355E-15, 1.224646799147353207E-16, -1.000000000000000000 ) ) ;
#215 = APPROVAL ( #123, 'UNSPECIFIED' ) ;
#216 = DATE_TIME_ROLE ( 'creation_date' ) ;
#217 = LOCAL_TIME ( 15, 47, 9.000000000000000000, #59 ) ;
#218 = APPROVAL_DATE_TIME ( #208, #215 ) ;
#219 = DATE_AND_TIME ( #160, #217 ) ;
#220 = ORIENTED_EDGE ( 'NONE', *, *, #202, .T. ) ;
#221 = APPROVAL_PERSON_ORGANIZATION ( #87, #95, #172 ) ;
#222 = PERSON_AND_ORGANIZATION ( #66, #93 ) ;
#223 = DIRECTION ( 'NONE',  ( 0.0000000000000000000, 1.000000000000000000, 0.0000000000000000000 ) ) ;
ENDSEC;
END-ISO-10303-21;
