ISO-10303-21;
HEADER;
FILE_DESCRIPTION (( 'STEP AP203' ),
    '1' );
FILE_NAME ('37004.step',
    '2021-10-07T13:47:08',
    ( '' ),
    ( '' ),
    'SwSTEP 2.0',
    'SolidWorks 2019',
    '' );
FILE_SCHEMA (( 'CONFIG_CONTROL_DESIGN' ));
ENDSEC;

DATA;
#1 = DATE_AND_TIME ( #155, #97 ) ;
#2 = AXIS2_PLACEMENT_3D ( 'NONE', #217, #90, #26 ) ;
#3 = EDGE_LOOP ( 'NONE', ( #39 ) ) ;
#4 = EDGE_LOOP ( 'NONE', ( #69 ) ) ;
#5 = CC_DESIGN_DATE_AND_TIME_ASSIGNMENT ( #67, #117, ( #182 ) ) ;
#6 = APPROVAL_ROLE ( '' ) ;
#7 = APPROVAL_DATE_TIME ( #163, #60 ) ;
#8 = CYLINDRICAL_SURFACE ( 'NONE', #110, 0.7499999999999986677 ) ;
#9 = CONICAL_SURFACE ( 'NONE', #175, 0.5500000000000001554, 0.7853981633974510546 ) ;
#10 = ADVANCED_FACE ( 'NONE', ( #141, #162 ), #8, .T. ) ;
#11 = DIRECTION ( 'NONE',  ( -3.491481338843133355E-15, 1.224646799147353207E-16, -1.000000000000000000 ) ) ;
#12 = DIRECTION ( 'NONE',  ( 0.0000000000000000000, 1.000000000000000000, 0.0000000000000000000 ) ) ;
#13 = DIRECTION ( 'NONE',  ( -3.491481338843133355E-15, 1.224646799147353207E-16, -1.000000000000000000 ) ) ;
#14 = MECHANICAL_CONTEXT ( 'NONE', #120, 'mechanical' ) ;
#15 = CALENDAR_DATE ( 2021, 7, 10 ) ;
#16 = APPROVAL_PERSON_ORGANIZATION ( #81, #103, #30 ) ;
#17 = CARTESIAN_POINT ( 'NONE',  ( 0.0000000000000000000, 0.0000000000000000000, 0.0000000000000000000 ) ) ;
#18 = CC_DESIGN_SECURITY_CLASSIFICATION ( #55, ( #212 ) ) ;
#19 = DIRECTION ( 'NONE',  ( -4.275831445896958607E-31, -1.000000000000000000, -1.224646799147353207E-16 ) ) ;
#20 = CARTESIAN_POINT ( 'NONE',  ( 3.278400224091305821E-14, -1.149908004975238788E-15, 9.389711431702998823 ) ) ;
#21 = APPROVAL_PERSON_ORGANIZATION ( #211, #60, #6 ) ;
#22 = DIRECTION ( 'NONE',  ( -3.491481338843133355E-15, 1.224646799147353207E-16, -1.000000000000000000 ) ) ;
#23 = ORIENTED_EDGE ( 'NONE', *, *, #95, .F. ) ;
#24 = VERTEX_POINT ( 'NONE', #94 ) ;
#25 =( LENGTH_UNIT ( ) NAMED_UNIT ( * ) SI_UNIT ( .MILLI., .METRE. ) );
#26 = DIRECTION ( 'NONE',  ( 4.275831445896958607E-31, 1.000000000000000000, 1.224646799147353207E-16 ) ) ;
#27 = CC_DESIGN_PERSON_AND_ORGANIZATION_ASSIGNMENT ( #169, #209, ( #54 ) ) ;
#28 = CC_DESIGN_APPROVAL ( #146, ( #182 ) ) ;
#29 = COORDINATED_UNIVERSAL_TIME_OFFSET ( 1, 0, .AHEAD. ) ;
#30 = APPROVAL_ROLE ( '' ) ;
#31 = CIRCLE ( 'NONE', #107, 0.5250000000000000222 ) ;
#32 = CALENDAR_DATE ( 2021, 7, 10 ) ;
#33 = APPROVAL_STATUS ( 'not_yet_approved' ) ;
#34 = CC_DESIGN_PERSON_AND_ORGANIZATION_ASSIGNMENT ( #46, #137, ( #182 ) ) ;
#35 = ORIENTED_EDGE ( 'NONE', *, *, #154, .F. ) ;
#36 = DIRECTION ( 'NONE',  ( 0.0000000000000000000, -1.000000000000000000, 0.0000000000000000000 ) ) ;
#37 = DATE_AND_TIME ( #53, #185 ) ;
#38 = AXIS2_PLACEMENT_3D ( 'NONE', #72, #106, #173 ) ;
#39 = ORIENTED_EDGE ( 'NONE', *, *, #139, .F. ) ;
#40 = CARTESIAN_POINT ( 'NONE',  ( 3.142333204958820020E-14, 0.5249999999999990230, 9.000000000000000000 ) ) ;
#41 = PLANE ( 'NONE',  #2 ) ;
#42 = ADVANCED_BREP_SHAPE_REPRESENTATION ( '37004', ( #99, #100, #216 ), #68 ) ;
#43 = FACE_OUTER_BOUND ( 'NONE', #125, .T. ) ;
#44 = APPROVAL_STATUS ( 'not_yet_approved' ) ;
#45 = DIRECTION ( 'NONE',  ( 0.0000000000000000000, 0.0000000000000000000, 1.000000000000000000 ) ) ;
#46 = PERSON_AND_ORGANIZATION ( #204, #126 ) ;
#47 = UNCERTAINTY_MEASURE_WITH_UNIT (LENGTH_MEASURE( 1.000000000000000082E-05 ), #25, 'distance_accuracy_value', 'NONE');
#48 = EDGE_LOOP ( 'NONE', ( #85 ) ) ;
#49 = FACE_OUTER_BOUND ( 'NONE', #88, .T. ) ;
#50 = ADVANCED_FACE ( 'NONE', ( #143, #174 ), #93, .T. ) ;
#51 = CIRCLE ( 'NONE', #203, 0.5249999999999990230 ) ;
#52 = DATE_TIME_ROLE ( 'classification_date' ) ;
#53 = CALENDAR_DATE ( 2021, 7, 10 ) ;
#54 = PRODUCT ( '37004', '37004', '', ( #14 ) ) ;
#55 = SECURITY_CLASSIFICATION ( '', '', #171 ) ;
#56 = ADVANCED_FACE ( 'NONE', ( #49 ), #101, .T. ) ;
#57 = DIRECTION ( 'NONE',  ( 0.0000000000000000000, 1.000000000000000000, 0.0000000000000000000 ) ) ;
#58 = VERTEX_POINT ( 'NONE', #109 ) ;
#59 = CARTESIAN_POINT ( 'NONE',  ( 3.278400224091305821E-14, -1.149908004975238788E-15, 9.389711431702998823 ) ) ;
#60 = APPROVAL ( #33, 'UNSPECIFIED' ) ;
#61 = CC_DESIGN_APPROVAL ( #103, ( #212 ) ) ;
#62 = DIRECTION ( 'NONE',  ( -3.491481338843133355E-15, 1.224646799147353207E-16, -1.000000000000000000 ) ) ;
#63 = PERSON_AND_ORGANIZATION ( #204, #126 ) ;
#64 = CIRCLE ( 'NONE', #138, 0.5500000000000001554 ) ;
#65 = CC_DESIGN_PERSON_AND_ORGANIZATION_ASSIGNMENT ( #208, #66, ( #212 ) ) ;
#66 = PERSON_AND_ORGANIZATION_ROLE ( 'creator' ) ;
#67 = DATE_AND_TIME ( #15, #132 ) ;
#68 =( GEOMETRIC_REPRESENTATION_CONTEXT ( 3 ) GLOBAL_UNCERTAINTY_ASSIGNED_CONTEXT ( ( #47 ) ) GLOBAL_UNIT_ASSIGNED_CONTEXT ( ( #25, #184, #221 ) ) REPRESENTATION_CONTEXT ( 'NONE', 'WORKASPACE' ) );
#69 = ORIENTED_EDGE ( 'NONE', *, *, #95, .T. ) ;
#70 = ADVANCED_FACE ( 'NONE', ( #140, #121 ), #9, .T. ) ;
#71 = CARTESIAN_POINT ( 'NONE',  ( 0.0000000000000000000, 0.0000000000000000000, 0.0000000000000000000 ) ) ;
#72 = CARTESIAN_POINT ( 'NONE',  ( 1.101394160254751562E-15, -3.863170677585479607E-17, 0.3154518249894720516 ) ) ;
#73 = ADVANCED_FACE ( 'NONE', ( #87 ), #160, .F. ) ;
#74 = DIRECTION ( 'NONE',  ( -3.491481338843133355E-15, 1.224646799147353207E-16, -1.000000000000000000 ) ) ;
#75 = CARTESIAN_POINT ( 'NONE',  ( 1.047444401652940007E-13, -3.673940397442059178E-15, 30.00000000000000000 ) ) ;
#76 = CARTESIAN_POINT ( 'NONE',  ( 3.142333204958820020E-14, 3.936869429487360483E-33, 9.000000000000000000 ) ) ;
#77 = FACE_OUTER_BOUND ( 'NONE', #192, .T. ) ;
#78 = EDGE_CURVE ( 'NONE', #58, #58, #198, .T. ) ;
#79 = COORDINATED_UNIVERSAL_TIME_OFFSET ( 1, 0, .AHEAD. ) ;
#80 = APPROVAL_PERSON_ORGANIZATION ( #190, #146, #189 ) ;
#81 = PERSON_AND_ORGANIZATION ( #204, #126 ) ;
#82 = APPLICATION_PROTOCOL_DEFINITION ( 'international standard', 'config_control_design', 1994, #134 ) ;
#83 = AXIS2_PLACEMENT_3D ( 'NONE', #20, #86, #36 ) ;
#84 = PRODUCT_DEFINITION_SHAPE ( 'NONE', 'NONE',  #182 ) ;
#85 = ORIENTED_EDGE ( 'NONE', *, *, #178, .F. ) ;
#86 = DIRECTION ( 'NONE',  ( 3.491481338843133355E-15, -1.224646799147353207E-16, 1.000000000000000000 ) ) ;
#87 = FACE_OUTER_BOUND ( 'NONE', #4, .T. ) ;
#88 = EDGE_LOOP ( 'NONE', ( #105 ) ) ;
#89 = VERTEX_POINT ( 'NONE', #183 ) ;
#90 = DIRECTION ( 'NONE',  ( -3.491481338843133355E-15, 1.224646799147353207E-16, -1.000000000000000000 ) ) ;
#91 = VERTEX_POINT ( 'NONE', #165 ) ;
#92 = AXIS2_PLACEMENT_3D ( 'NONE', #128, #74, #180 ) ;
#93 = CONICAL_SURFACE ( 'NONE', #83, 0.7499999999999975575, 0.5235987755982922653 ) ;
#94 = CARTESIAN_POINT ( 'NONE',  ( 3.142333204958820020E-14, 0.5249999999999990230, 9.000000000000000000 ) ) ;
#95 = EDGE_CURVE ( 'NONE', #202, #202, #210, .T. ) ;
#96 = DIRECTION ( 'NONE',  ( 1.000000000000000000, 0.0000000000000000000, 0.0000000000000000000 ) ) ;
#97 = LOCAL_TIME ( 15, 47, 8.000000000000000000, #172 ) ;
#98 = APPROVAL_STATUS ( 'not_yet_approved' ) ;
#99 = MANIFOLD_SOLID_BREP ( 'Corps-Déplacer/Copier1[1]', #167 ) ;
#100 = MANIFOLD_SOLID_BREP ( 'Corps-Déplacer/Copier1[2]', #130 ) ;
#101 = CONICAL_SURFACE ( 'NONE', #38, 0.5249999999999990230, 1.029744258676649649 ) ;
#102 = DIRECTION ( 'NONE',  ( 0.0000000000000000000, 1.000000000000000000, 0.0000000000000000000 ) ) ;
#103 = APPROVAL ( #44, 'UNSPECIFIED' ) ;
#104 = EDGE_LOOP ( 'NONE', ( #159 ) ) ;
#105 = ORIENTED_EDGE ( 'NONE', *, *, #139, .T. ) ;
#106 = DIRECTION ( 'NONE',  ( 3.491481338843133355E-15, -1.224646799147353207E-16, 1.000000000000000000 ) ) ;
#107 = AXIS2_PLACEMENT_3D ( 'NONE', #131, #201, #200 ) ;
#108 = EDGE_LOOP ( 'NONE', ( #23 ) ) ;
#109 = CARTESIAN_POINT ( 'NONE',  ( 1.040461438975253740E-13, 0.7499999999999963363, 29.80000000000000071 ) ) ;
#110 = AXIS2_PLACEMENT_3D ( 'NONE', #71, #197, #124 ) ;
#111 = PRODUCT_RELATED_PRODUCT_CATEGORY ( 'detail', '', ( #54 ) ) ;
#112 = CARTESIAN_POINT ( 'NONE',  ( 1.101394160254751759E-15, 0.5249999999999990230, 0.3154518249894721071 ) ) ;
#113 = DIRECTION ( 'NONE',  ( 3.491481338843133355E-15, -1.224646799147353207E-16, 1.000000000000000000 ) ) ;
#114 = CARTESIAN_POINT ( 'NONE',  ( 3.142333204958820020E-14, -1.102182119232617714E-15, 9.000000000000000000 ) ) ;
#115 = LOCAL_TIME ( 15, 47, 8.000000000000000000, #161 ) ;
#116 = PERSON_AND_ORGANIZATION ( #204, #126 ) ;
#117 = DATE_TIME_ROLE ( 'creation_date' ) ;
#118 = ADVANCED_FACE ( 'NONE', ( #77 ), #127, .T. ) ;
#119 = AXIS2_PLACEMENT_3D ( 'NONE', #147, #62, #135 ) ;
#120 = APPLICATION_CONTEXT ( 'configuration controlled 3d designs of mechanical parts and assemblies' ) ;
#121 = FACE_BOUND ( 'NONE', #123, .T. ) ;
#122 = DIRECTION ( 'NONE',  ( 3.491481338843133355E-15, -1.224646799147353207E-16, 1.000000000000000000 ) ) ;
#123 = EDGE_LOOP ( 'NONE', ( #177 ) ) ;
#124 = DIRECTION ( 'NONE',  ( 4.275831445896959482E-31, 1.000000000000000000, 1.224646799147353207E-16 ) ) ;
#125 = EDGE_LOOP ( 'NONE', ( #194 ) ) ;
#126 = ORGANIZATION ( 'UNSPECIFIED', 'UNSPECIFIED', '' ) ;
#127 = PLANE ( 'NONE',  #220 ) ;
#128 = CARTESIAN_POINT ( 'NONE',  ( 0.0000000000000000000, 0.0000000000000000000, 0.0000000000000000000 ) ) ;
#129 = CC_DESIGN_DATE_AND_TIME_ASSIGNMENT ( #37, #52, ( #55 ) ) ;
#130 = CLOSED_SHELL ( 'NONE', ( #56, #158, #118 ) ) ;
#131 = CARTESIAN_POINT ( 'NONE',  ( 3.142333204958820020E-14, -1.102182119232617714E-15, 9.000000000000000000 ) ) ;
#132 = LOCAL_TIME ( 15, 47, 8.000000000000000000, #223 ) ;
#133 = DIRECTION ( 'NONE',  ( -3.491481338843133355E-15, 1.224646799147353207E-16, -1.000000000000000000 ) ) ;
#134 = APPLICATION_CONTEXT ( 'configuration controlled 3d designs of mechanical parts and assemblies' ) ;
#135 = DIRECTION ( 'NONE',  ( 0.0000000000000000000, 1.000000000000000000, 0.0000000000000000000 ) ) ;
#136 = APPROVAL_DATE_TIME ( #1, #103 ) ;
#137 = PERSON_AND_ORGANIZATION_ROLE ( 'creator' ) ;
#138 = AXIS2_PLACEMENT_3D ( 'NONE', #75, #133, #57 ) ;
#139 = EDGE_CURVE ( 'NONE', #149, #149, #51, .T. ) ;
#140 = FACE_OUTER_BOUND ( 'NONE', #157, .T. ) ;
#141 = FACE_OUTER_BOUND ( 'NONE', #48, .T. ) ;
#142 = ORIENTED_EDGE ( 'NONE', *, *, #78, .T. ) ;
#143 = FACE_BOUND ( 'NONE', #108, .T. ) ;
#144 = CARTESIAN_POINT ( 'NONE',  ( 1.047444401652940007E-13, -3.673940397442059178E-15, 30.00000000000000000 ) ) ;
#145 = CC_DESIGN_APPROVAL ( #60, ( #55 ) ) ;
#146 = APPROVAL ( #98, 'UNSPECIFIED' ) ;
#147 = CARTESIAN_POINT ( 'NONE',  ( 1.040461438975253740E-13, -3.649447461459112464E-15, 29.80000000000000071 ) ) ;
#148 = CARTESIAN_POINT ( 'NONE',  ( 1.101394160254751562E-15, -3.863170677585479607E-17, 0.3154518249894720516 ) ) ;
#149 = VERTEX_POINT ( 'NONE', #112 ) ;
#150 = DIRECTION ( 'NONE',  ( 0.0000000000000000000, 1.000000000000000000, 0.0000000000000000000 ) ) ;
#151 = APPROVAL_DATE_TIME ( #222, #146 ) ;
#152 = CALENDAR_DATE ( 2021, 7, 10 ) ;
#153 = AXIS2_PLACEMENT_3D ( 'NONE', #114, #218, #12 ) ;
#154 = EDGE_CURVE ( 'NONE', #24, #24, #31, .T. ) ;
#155 = CALENDAR_DATE ( 2021, 7, 10 ) ;
#156 = AXIS2_PLACEMENT_3D ( 'NONE', #214, #122, #19 ) ;
#157 = EDGE_LOOP ( 'NONE', ( #213 ) ) ;
#158 = ADVANCED_FACE ( 'NONE', ( #205, #179 ), #166, .T. ) ;
#159 = ORIENTED_EDGE ( 'NONE', *, *, #178, .T. ) ;
#160 = PLANE ( 'NONE',  #156 ) ;
#161 = COORDINATED_UNIVERSAL_TIME_OFFSET ( 1, 0, .AHEAD. ) ;
#162 = FACE_OUTER_BOUND ( 'NONE', #196, .T. ) ;
#163 = DATE_AND_TIME ( #32, #115 ) ;
#164 = AXIS2_PLACEMENT_3D ( 'NONE', #59, #11, #150 ) ;
#165 = CARTESIAN_POINT ( 'NONE',  ( 3.278400224091305821E-14, 0.7499999999999963363, 9.389711431702998823 ) ) ;
#166 = CYLINDRICAL_SURFACE ( 'NONE', #92, 0.5249999999999995781 ) ;
#167 = CLOSED_SHELL ( 'NONE', ( #73, #50, #10, #70, #188 ) ) ;
#168 = APPLICATION_PROTOCOL_DEFINITION ( 'international standard', 'config_control_design', 1994, #120 ) ;
#169 = PERSON_AND_ORGANIZATION ( #204, #126 ) ;
#170 = CC_DESIGN_PERSON_AND_ORGANIZATION_ASSIGNMENT ( #63, #207, ( #212 ) ) ;
#171 = SECURITY_CLASSIFICATION_LEVEL ( 'unclassified' ) ;
#172 = COORDINATED_UNIVERSAL_TIME_OFFSET ( 1, 0, .AHEAD. ) ;
#173 = DIRECTION ( 'NONE',  ( -3.668437989309027345E-31, -1.000000000000000000, -1.032573497605244196E-16 ) ) ;
#174 = FACE_OUTER_BOUND ( 'NONE', #104, .T. ) ;
#175 = AXIS2_PLACEMENT_3D ( 'NONE', #144, #22, #102 ) ;
#176 = ORIENTED_EDGE ( 'NONE', *, *, #154, .T. ) ;
#177 = ORIENTED_EDGE ( 'NONE', *, *, #195, .T. ) ;
#178 = EDGE_CURVE ( 'NONE', #91, #91, #181, .T. ) ;
#179 = FACE_OUTER_BOUND ( 'NONE', #199, .T. ) ;
#180 = DIRECTION ( 'NONE',  ( 4.275831445896958607E-31, 1.000000000000000000, 1.224646799147353207E-16 ) ) ;
#181 = CIRCLE ( 'NONE', #164, 0.7499999999999975575 ) ;
#182 = PRODUCT_DEFINITION ( 'UNKNOWN', '', #212, #187 ) ;
#183 = CARTESIAN_POINT ( 'NONE',  ( 1.047444401652940007E-13, 0.5499999999999964917, 30.00000000000000000 ) ) ;
#184 =( NAMED_UNIT ( * ) PLANE_ANGLE_UNIT ( ) SI_UNIT ( $, .RADIAN. ) );
#185 = LOCAL_TIME ( 15, 47, 8.000000000000000000, #29 ) ;
#186 = PERSON_AND_ORGANIZATION_ROLE ( 'classification_officer' ) ;
#187 = DESIGN_CONTEXT ( 'detailed design', #134, 'design' ) ;
#188 = ADVANCED_FACE ( 'NONE', ( #43 ), #41, .F. ) ;
#189 = APPROVAL_ROLE ( '' ) ;
#190 = PERSON_AND_ORGANIZATION ( #204, #126 ) ;
#191 = CC_DESIGN_PERSON_AND_ORGANIZATION_ASSIGNMENT ( #116, #186, ( #55 ) ) ;
#192 = EDGE_LOOP ( 'NONE', ( #35 ) ) ;
#193 = LOCAL_TIME ( 15, 47, 8.000000000000000000, #79 ) ;
#194 = ORIENTED_EDGE ( 'NONE', *, *, #195, .F. ) ;
#195 = EDGE_CURVE ( 'NONE', #89, #89, #64, .T. ) ;
#196 = EDGE_LOOP ( 'NONE', ( #142 ) ) ;
#197 = DIRECTION ( 'NONE',  ( -3.491481338843133355E-15, 1.224646799147353207E-16, -1.000000000000000000 ) ) ;
#198 = CIRCLE ( 'NONE', #119, 0.7500000000000000000 ) ;
#199 = EDGE_LOOP ( 'NONE', ( #176 ) ) ;
#200 = DIRECTION ( 'NONE',  ( 0.0000000000000000000, 1.000000000000000000, 0.0000000000000000000 ) ) ;
#201 = DIRECTION ( 'NONE',  ( -3.491481338843133355E-15, 1.224646799147353207E-16, -1.000000000000000000 ) ) ;
#202 = VERTEX_POINT ( 'NONE', #40 ) ;
#203 = AXIS2_PLACEMENT_3D ( 'NONE', #148, #13, #219 ) ;
#204 = PERSON ( 'UNSPECIFIED', 'UNSPECIFIED', 'UNSPECIFIED', ('UNSPECIFIED'), ('UNSPECIFIED'), ('UNSPECIFIED') ) ;
#205 = FACE_OUTER_BOUND ( 'NONE', #3, .T. ) ;
#206 = DIRECTION ( 'NONE',  ( -4.275831445896958607E-31, -1.000000000000000000, -1.224646799147353207E-16 ) ) ;
#207 = PERSON_AND_ORGANIZATION_ROLE ( 'design_supplier' ) ;
#208 = PERSON_AND_ORGANIZATION ( #204, #126 ) ;
#209 = PERSON_AND_ORGANIZATION_ROLE ( 'design_owner' ) ;
#210 = CIRCLE ( 'NONE', #153, 0.5250000000000000222 ) ;
#211 = PERSON_AND_ORGANIZATION ( #204, #126 ) ;
#212 = PRODUCT_DEFINITION_FORMATION_WITH_SPECIFIED_SOURCE ( 'ANY', '', #54, .NOT_KNOWN. ) ;
#213 = ORIENTED_EDGE ( 'NONE', *, *, #78, .F. ) ;
#214 = CARTESIAN_POINT ( 'NONE',  ( 3.142333204958820020E-14, 3.936869429487360483E-33, 9.000000000000000000 ) ) ;
#215 = SHAPE_DEFINITION_REPRESENTATION ( #84, #42 ) ;
#216 = AXIS2_PLACEMENT_3D ( 'NONE', #17, #45, #96 ) ;
#217 = CARTESIAN_POINT ( 'NONE',  ( 1.047444401652940007E-13, 4.124339402320053683E-33, 30.00000000000000000 ) ) ;
#218 = DIRECTION ( 'NONE',  ( -3.491481338843133355E-15, 1.224646799147353207E-16, -1.000000000000000000 ) ) ;
#219 = DIRECTION ( 'NONE',  ( 3.668437989309027345E-31, 1.000000000000000000, 1.032573497605244196E-16 ) ) ;
#220 = AXIS2_PLACEMENT_3D ( 'NONE', #76, #113, #206 ) ;
#221 =( NAMED_UNIT ( * ) SI_UNIT ( $, .STERADIAN. ) SOLID_ANGLE_UNIT ( ) );
#222 = DATE_AND_TIME ( #152, #193 ) ;
#223 = COORDINATED_UNIVERSAL_TIME_OFFSET ( 1, 0, .AHEAD. ) ;
ENDSEC;
END-ISO-10303-21;
