ISO-10303-21;
HEADER;
FILE_DESCRIPTION (( 'STEP AP203' ),
    '1' );
FILE_NAME ('37002.step',
    '2021-10-07T13:47:07',
    ( '' ),
    ( '' ),
    'SwSTEP 2.0',
    'SolidWorks 2019',
    '' );
FILE_SCHEMA (( 'CONFIG_CONTROL_DESIGN' ));
ENDSEC;

DATA;
#1 = AXIS2_PLACEMENT_3D ( 'NONE', #15, #169, #28 ) ;
#2 = DIRECTION ( 'NONE',  ( 0.0000000000000000000, 0.0000000000000000000, 1.000000000000000000 ) ) ;
#3 = CONICAL_SURFACE ( 'NONE', #157, 0.7499999999999975575, 0.5235987755982929315 ) ;
#4 = ORIENTED_EDGE ( 'NONE', *, *, #190, .T. ) ;
#5 = PERSON_AND_ORGANIZATION_ROLE ( 'creator' ) ;
#6 = ADVANCED_FACE ( 'NONE', ( #34, #159 ), #205, .T. ) ;
#7 = PERSON_AND_ORGANIZATION ( #25, #46 ) ;
#8 = COORDINATED_UNIVERSAL_TIME_OFFSET ( 1, 0, .AHEAD. ) ;
#9 = DATE_AND_TIME ( #86, #217 ) ;
#10 = CIRCLE ( 'NONE', #39, 0.7500000000000000000 ) ;
#11 = PLANE ( 'NONE',  #62 ) ;
#12 = APPROVAL ( #101, 'UNSPECIFIED' ) ;
#13 = DIRECTION ( 'NONE',  ( -3.491481338843133355E-15, 1.224646799147353207E-16, -1.000000000000000000 ) ) ;
#14 = DIRECTION ( 'NONE',  ( 3.491481338843133355E-15, -1.224646799147353207E-16, 1.000000000000000000 ) ) ;
#15 = CARTESIAN_POINT ( 'NONE',  ( 3.142333204958820651E-14, -1.102182119232617911E-15, 9.000000000000001776 ) ) ;
#16 = MANIFOLD_SOLID_BREP ( 'Corps-Déplacer/Copier1[2]', #165 ) ;
#17 = DATE_AND_TIME ( #32, #96 ) ;
#18 = PERSON_AND_ORGANIZATION ( #25, #46 ) ;
#19 = DIRECTION ( 'NONE',  ( 0.0000000000000000000, 1.000000000000000000, 0.0000000000000000000 ) ) ;
#20 = PERSON_AND_ORGANIZATION ( #25, #46 ) ;
#21 = COORDINATED_UNIVERSAL_TIME_OFFSET ( 1, 0, .AHEAD. ) ;
#22 = COORDINATED_UNIVERSAL_TIME_OFFSET ( 1, 0, .AHEAD. ) ;
#23 = CARTESIAN_POINT ( 'NONE',  ( 3.284447647163860830E-14, -1.152029155452688679E-15, 9.407031939778686791 ) ) ;
#24 = AXIS2_PLACEMENT_3D ( 'NONE', #202, #13, #77 ) ;
#25 = PERSON ( 'UNSPECIFIED', 'UNSPECIFIED', 'UNSPECIFIED', ('UNSPECIFIED'), ('UNSPECIFIED'), ('UNSPECIFIED') ) ;
#26 = EDGE_CURVE ( 'NONE', #97, #97, #98, .T. ) ;
#27 = APPROVAL_PERSON_ORGANIZATION ( #18, #112, #160 ) ;
#28 = DIRECTION ( 'NONE',  ( 0.0000000000000000000, 1.000000000000000000, 0.0000000000000000000 ) ) ;
#29 = CARTESIAN_POINT ( 'NONE',  ( 3.142333204958820651E-14, 0.5149999999999997913, 9.000000000000001776 ) ) ;
#30 = FACE_OUTER_BOUND ( 'NONE', #120, .T. ) ;
#31 = ORIENTED_EDGE ( 'NONE', *, *, #133, .F. ) ;
#32 = CALENDAR_DATE ( 2021, 7, 10 ) ;
#33 = CC_DESIGN_PERSON_AND_ORGANIZATION_ASSIGNMENT ( #52, #5, ( #155 ) ) ;
#34 = FACE_OUTER_BOUND ( 'NONE', #100, .T. ) ;
#35 = APPROVAL_ROLE ( '' ) ;
#36 = APPROVAL_STATUS ( 'not_yet_approved' ) ;
#37 = DATE_AND_TIME ( #85, #186 ) ;
#38 = DIRECTION ( 'NONE',  ( 0.0000000000000000000, 1.000000000000000000, 0.0000000000000000000 ) ) ;
#39 = AXIS2_PLACEMENT_3D ( 'NONE', #206, #185, #45 ) ;
#40 = ADVANCED_BREP_SHAPE_REPRESENTATION ( '37002', ( #171, #16, #130 ), #172 ) ;
#41 = DIRECTION ( 'NONE',  ( -3.491481338843133355E-15, 1.224646799147353207E-16, -1.000000000000000000 ) ) ;
#42 = LOCAL_TIME ( 15, 47, 7.000000000000000000, #22 ) ;
#43 = PLANE ( 'NONE',  #209 ) ;
#44 = VERTEX_POINT ( 'NONE', #74 ) ;
#45 = DIRECTION ( 'NONE',  ( 0.0000000000000000000, 1.000000000000000000, 0.0000000000000000000 ) ) ;
#46 = ORGANIZATION ( 'UNSPECIFIED', 'UNSPECIFIED', '' ) ;
#47 = DESIGN_CONTEXT ( 'detailed design', #124, 'design' ) ;
#48 = VERTEX_POINT ( 'NONE', #154 ) ;
#49 = SECURITY_CLASSIFICATION ( '', '', #199 ) ;
#50 = ADVANCED_FACE ( 'NONE', ( #110 ), #204, .F. ) ;
#51 = ORIENTED_EDGE ( 'NONE', *, *, #119, .T. ) ;
#52 = PERSON_AND_ORGANIZATION ( #25, #46 ) ;
#53 = PRODUCT ( '37002', '37002', '', ( #219 ) ) ;
#54 = LOCAL_TIME ( 15, 47, 7.000000000000000000, #8 ) ;
#55 = EDGE_LOOP ( 'NONE', ( #51 ) ) ;
#56 = APPROVAL ( #215, 'UNSPECIFIED' ) ;
#57 = DIRECTION ( 'NONE',  ( 3.491481338843133355E-15, -1.224646799147353207E-16, 1.000000000000000000 ) ) ;
#58 = PERSON_AND_ORGANIZATION ( #25, #46 ) ;
#59 = ADVANCED_FACE ( 'NONE', ( #150 ), #11, .T. ) ;
#60 = CARTESIAN_POINT ( 'NONE',  ( 1.080415223868946798E-15, -3.789586474202899524E-17, 0.3094432187991963956 ) ) ;
#61 = DIRECTION ( 'NONE',  ( 4.275831445896958607E-31, 1.000000000000000000, 1.224646799147353207E-16 ) ) ;
#62 = AXIS2_PLACEMENT_3D ( 'NONE', #164, #57, #132 ) ;
#63 = CYLINDRICAL_SURFACE ( 'NONE', #200, 0.5149999999999999023 ) ;
#64 = CC_DESIGN_DATE_AND_TIME_ASSIGNMENT ( #17, #184, ( #155 ) ) ;
#65 = CARTESIAN_POINT ( 'NONE',  ( 3.284447647163860830E-14, -1.152029155452688679E-15, 9.407031939778686791 ) ) ;
#66 = CLOSED_SHELL ( 'NONE', ( #50, #91, #145, #6, #193 ) ) ;
#67 = AXIS2_PLACEMENT_3D ( 'NONE', #223, #80, #208 ) ;
#68 = AXIS2_PLACEMENT_3D ( 'NONE', #103, #178, #19 ) ;
#69 = CC_DESIGN_DATE_AND_TIME_ASSIGNMENT ( #126, #121, ( #49 ) ) ;
#70 = ORIENTED_EDGE ( 'NONE', *, *, #127, .F. ) ;
#71 = PERSON_AND_ORGANIZATION_ROLE ( 'creator' ) ;
#72 = APPROVAL_DATE_TIME ( #37, #56 ) ;
#73 = APPROVAL_PERSON_ORGANIZATION ( #7, #12, #35 ) ;
#74 = CARTESIAN_POINT ( 'NONE',  ( 3.142333204958820651E-14, 0.5149999999999997913, 9.000000000000001776 ) ) ;
#75 = DIRECTION ( 'NONE',  ( -3.739669794926678821E-31, -1.000000000000000000, -1.052623468432530621E-16 ) ) ;
#76 = PRODUCT_RELATED_PRODUCT_CATEGORY ( 'detail', '', ( #53 ) ) ;
#77 = DIRECTION ( 'NONE',  ( 0.0000000000000000000, 1.000000000000000000, 0.0000000000000000000 ) ) ;
#78 = ADVANCED_FACE ( 'NONE', ( #125 ), #137, .T. ) ;
#79 = CARTESIAN_POINT ( 'NONE',  ( 1.080415223868946798E-15, -3.789586474202899524E-17, 0.3094432187991963956 ) ) ;
#80 = DIRECTION ( 'NONE',  ( -3.491481338843133355E-15, 1.224646799147353207E-16, -1.000000000000000000 ) ) ;
#81 = CC_DESIGN_APPROVAL ( #112, ( #49 ) ) ;
#82 = CARTESIAN_POINT ( 'NONE',  ( 3.284447647163860830E-14, 0.7499999999999963363, 9.407031939778686791 ) ) ;
#83 = PERSON_AND_ORGANIZATION ( #25, #46 ) ;
#84 = CALENDAR_DATE ( 2021, 7, 10 ) ;
#85 = CALENDAR_DATE ( 2021, 7, 10 ) ;
#86 = CALENDAR_DATE ( 2021, 7, 10 ) ;
#87 = EDGE_LOOP ( 'NONE', ( #70 ) ) ;
#88 = APPROVAL_DATE_TIME ( #141, #112 ) ;
#89 = DIRECTION ( 'NONE',  ( 0.0000000000000000000, 1.000000000000000000, 0.0000000000000000000 ) ) ;
#90 = DIRECTION ( 'NONE',  ( 3.491481338843133355E-15, -1.224646799147353207E-16, 1.000000000000000000 ) ) ;
#91 = ADVANCED_FACE ( 'NONE', ( #187, #146 ), #3, .T. ) ;
#92 = CARTESIAN_POINT ( 'NONE',  ( 1.047444401652940007E-13, 0.5499999999999964917, 30.00000000000000000 ) ) ;
#93 = DIRECTION ( 'NONE',  ( 3.739669794926678821E-31, 1.000000000000000000, 1.052623468432530621E-16 ) ) ;
#94 = CIRCLE ( 'NONE', #24, 0.5500000000000001554 ) ;
#95 = APPLICATION_CONTEXT ( 'configuration controlled 3d designs of mechanical parts and assemblies' ) ;
#96 = LOCAL_TIME ( 15, 47, 7.000000000000000000, #21 ) ;
#97 = VERTEX_POINT ( 'NONE', #29 ) ;
#98 = CIRCLE ( 'NONE', #1, 0.5150000000000009015 ) ;
#99 = CC_DESIGN_PERSON_AND_ORGANIZATION_ASSIGNMENT ( #140, #182, ( #53 ) ) ;
#100 = EDGE_LOOP ( 'NONE', ( #181 ) ) ;
#101 = APPROVAL_STATUS ( 'not_yet_approved' ) ;
#102 =( LENGTH_UNIT ( ) NAMED_UNIT ( * ) SI_UNIT ( .MILLI., .METRE. ) );
#103 = CARTESIAN_POINT ( 'NONE',  ( 1.047444401652940007E-13, -3.673940397442059178E-15, 30.00000000000000000 ) ) ;
#104 = EDGE_LOOP ( 'NONE', ( #198 ) ) ;
#105 = CALENDAR_DATE ( 2021, 7, 10 ) ;
#106 = APPROVAL_ROLE ( '' ) ;
#107 = FACE_OUTER_BOUND ( 'NONE', #135, .T. ) ;
#108 = CC_DESIGN_PERSON_AND_ORGANIZATION_ASSIGNMENT ( #83, #177, ( #49 ) ) ;
#109 = CYLINDRICAL_SURFACE ( 'NONE', #67, 0.7499999999999986677 ) ;
#110 = FACE_OUTER_BOUND ( 'NONE', #115, .T. ) ;
#111 = CARTESIAN_POINT ( 'NONE',  ( 1.080415223868946995E-15, 0.5149999999999990141, 0.3094432187991964511 ) ) ;
#112 = APPROVAL ( #36, 'UNSPECIFIED' ) ;
#113 = CARTESIAN_POINT ( 'NONE',  ( 1.047444401652940007E-13, 4.124339402320053683E-33, 30.00000000000000000 ) ) ;
#114 = CIRCLE ( 'NONE', #166, 0.5150000000000009015 ) ;
#115 = EDGE_LOOP ( 'NONE', ( #212 ) ) ;
#116 = APPLICATION_PROTOCOL_DEFINITION ( 'international standard', 'config_control_design', 1994, #124 ) ;
#117 = ORIENTED_EDGE ( 'NONE', *, *, #183, .T. ) ;
#118 = APPROVAL_DATE_TIME ( #9, #12 ) ;
#119 = EDGE_CURVE ( 'NONE', #173, #173, #94, .T. ) ;
#120 = EDGE_LOOP ( 'NONE', ( #31 ) ) ;
#121 = DATE_TIME_ROLE ( 'classification_date' ) ;
#122 = AXIS2_PLACEMENT_3D ( 'NONE', #65, #129, #89 ) ;
#123 = PERSON_AND_ORGANIZATION_ROLE ( 'design_supplier' ) ;
#124 = APPLICATION_CONTEXT ( 'configuration controlled 3d designs of mechanical parts and assemblies' ) ;
#125 = FACE_OUTER_BOUND ( 'NONE', #104, .T. ) ;
#126 = DATE_AND_TIME ( #105, #42 ) ;
#127 = EDGE_CURVE ( 'NONE', #44, #44, #114, .T. ) ;
#128 = FACE_OUTER_BOUND ( 'NONE', #139, .T. ) ;
#129 = DIRECTION ( 'NONE',  ( -3.491481338843133355E-15, 1.224646799147353207E-16, -1.000000000000000000 ) ) ;
#130 = AXIS2_PLACEMENT_3D ( 'NONE', #158, #2, #144 ) ;
#131 = DIRECTION ( 'NONE',  ( 3.491481338843133355E-15, -1.224646799147353207E-16, 1.000000000000000000 ) ) ;
#132 = DIRECTION ( 'NONE',  ( -4.275831445896958607E-31, -1.000000000000000000, -1.224646799147353207E-16 ) ) ;
#133 = EDGE_CURVE ( 'NONE', #207, #207, #188, .T. ) ;
#134 = VERTEX_POINT ( 'NONE', #82 ) ;
#135 = EDGE_LOOP ( 'NONE', ( #176 ) ) ;
#136 = EDGE_LOOP ( 'NONE', ( #211 ) ) ;
#137 = CONICAL_SURFACE ( 'NONE', #203, 0.5149999999999990141, 1.029744258676649649 ) ;
#138 = CIRCLE ( 'NONE', #122, 0.7499999999999975575 ) ;
#139 = EDGE_LOOP ( 'NONE', ( #4 ) ) ;
#140 = PERSON_AND_ORGANIZATION ( #25, #46 ) ;
#141 = DATE_AND_TIME ( #84, #54 ) ;
#142 = AXIS2_PLACEMENT_3D ( 'NONE', #60, #147, #93 ) ;
#143 = CARTESIAN_POINT ( 'NONE',  ( 3.142333204958820651E-14, -2.085804737857224477E-31, 9.000000000000001776 ) ) ;
#144 = DIRECTION ( 'NONE',  ( 1.000000000000000000, 0.0000000000000000000, 0.0000000000000000000 ) ) ;
#145 = ADVANCED_FACE ( 'NONE', ( #218, #128 ), #109, .T. ) ;
#146 = FACE_OUTER_BOUND ( 'NONE', #214, .T. ) ;
#147 = DIRECTION ( 'NONE',  ( -3.491481338843133355E-15, 1.224646799147353207E-16, -1.000000000000000000 ) ) ;
#148 = FACE_OUTER_BOUND ( 'NONE', #136, .T. ) ;
#149 = CC_DESIGN_APPROVAL ( #12, ( #153 ) ) ;
#150 = FACE_OUTER_BOUND ( 'NONE', #87, .T. ) ;
#151 = CC_DESIGN_PERSON_AND_ORGANIZATION_ASSIGNMENT ( #20, #123, ( #153 ) ) ;
#152 =( NAMED_UNIT ( * ) SI_UNIT ( $, .STERADIAN. ) SOLID_ANGLE_UNIT ( ) );
#153 = PRODUCT_DEFINITION_FORMATION_WITH_SPECIFIED_SOURCE ( 'ANY', '', #53, .NOT_KNOWN. ) ;
#154 = CARTESIAN_POINT ( 'NONE',  ( 1.040461438975253740E-13, 0.7499999999999963363, 29.80000000000000071 ) ) ;
#155 = PRODUCT_DEFINITION ( 'UNKNOWN', '', #153, #47 ) ;
#156 = ORIENTED_EDGE ( 'NONE', *, *, #26, .F. ) ;
#157 = AXIS2_PLACEMENT_3D ( 'NONE', #23, #14, #167 ) ;
#158 = CARTESIAN_POINT ( 'NONE',  ( 0.0000000000000000000, 0.0000000000000000000, 0.0000000000000000000 ) ) ;
#159 = FACE_BOUND ( 'NONE', #55, .T. ) ;
#160 = APPROVAL_ROLE ( '' ) ;
#161 = ORIENTED_EDGE ( 'NONE', *, *, #183, .F. ) ;
#162 = AXIS2_PLACEMENT_3D ( 'NONE', #143, #90, #222 ) ;
#163 = APPROVAL_PERSON_ORGANIZATION ( #195, #56, #106 ) ;
#164 = CARTESIAN_POINT ( 'NONE',  ( 3.142333204958820651E-14, -2.085804737857224477E-31, 9.000000000000001776 ) ) ;
#165 = CLOSED_SHELL ( 'NONE', ( #78, #170, #59 ) ) ;
#166 = AXIS2_PLACEMENT_3D ( 'NONE', #220, #41, #38 ) ;
#167 = DIRECTION ( 'NONE',  ( 0.0000000000000000000, -1.000000000000000000, 0.0000000000000000000 ) ) ;
#168 = UNCERTAINTY_MEASURE_WITH_UNIT (LENGTH_MEASURE( 1.000000000000000082E-05 ), #102, 'distance_accuracy_value', 'NONE');
#169 = DIRECTION ( 'NONE',  ( -3.491481338843133355E-15, 1.224646799147353207E-16, -1.000000000000000000 ) ) ;
#170 = ADVANCED_FACE ( 'NONE', ( #30, #148 ), #63, .T. ) ;
#171 = MANIFOLD_SOLID_BREP ( 'Corps-Déplacer/Copier1[1]', #66 ) ;
#172 =( GEOMETRIC_REPRESENTATION_CONTEXT ( 3 ) GLOBAL_UNCERTAINTY_ASSIGNED_CONTEXT ( ( #168 ) ) GLOBAL_UNIT_ASSIGNED_CONTEXT ( ( #102, #175, #152 ) ) REPRESENTATION_CONTEXT ( 'NONE', 'WORKASPACE' ) );
#173 = VERTEX_POINT ( 'NONE', #92 ) ;
#174 = CC_DESIGN_SECURITY_CLASSIFICATION ( #49, ( #153 ) ) ;
#175 =( NAMED_UNIT ( * ) PLANE_ANGLE_UNIT ( ) SI_UNIT ( $, .RADIAN. ) );
#176 = ORIENTED_EDGE ( 'NONE', *, *, #119, .F. ) ;
#177 = PERSON_AND_ORGANIZATION_ROLE ( 'classification_officer' ) ;
#178 = DIRECTION ( 'NONE',  ( -3.491481338843133355E-15, 1.224646799147353207E-16, -1.000000000000000000 ) ) ;
#179 = COORDINATED_UNIVERSAL_TIME_OFFSET ( 1, 0, .AHEAD. ) ;
#180 = CC_DESIGN_APPROVAL ( #56, ( #155 ) ) ;
#181 = ORIENTED_EDGE ( 'NONE', *, *, #190, .F. ) ;
#182 = PERSON_AND_ORGANIZATION_ROLE ( 'design_owner' ) ;
#183 = EDGE_CURVE ( 'NONE', #134, #134, #138, .T. ) ;
#184 = DATE_TIME_ROLE ( 'creation_date' ) ;
#185 = DIRECTION ( 'NONE',  ( -3.491481338843133355E-15, 1.224646799147353207E-16, -1.000000000000000000 ) ) ;
#186 = LOCAL_TIME ( 15, 47, 7.000000000000000000, #201 ) ;
#187 = FACE_BOUND ( 'NONE', #194, .T. ) ;
#188 = CIRCLE ( 'NONE', #142, 0.5149999999999990141 ) ;
#189 = DIRECTION ( 'NONE',  ( 4.275831445896958607E-31, 1.000000000000000000, 1.224646799147353207E-16 ) ) ;
#190 = EDGE_CURVE ( 'NONE', #48, #48, #10, .T. ) ;
#191 = CARTESIAN_POINT ( 'NONE',  ( 0.0000000000000000000, 0.0000000000000000000, 0.0000000000000000000 ) ) ;
#192 = DIRECTION ( 'NONE',  ( -3.491481338843133355E-15, 1.224646799147353207E-16, -1.000000000000000000 ) ) ;
#193 = ADVANCED_FACE ( 'NONE', ( #107 ), #43, .F. ) ;
#194 = EDGE_LOOP ( 'NONE', ( #156 ) ) ;
#195 = PERSON_AND_ORGANIZATION ( #25, #46 ) ;
#196 = CC_DESIGN_PERSON_AND_ORGANIZATION_ASSIGNMENT ( #58, #71, ( #153 ) ) ;
#197 = EDGE_LOOP ( 'NONE', ( #161 ) ) ;
#198 = ORIENTED_EDGE ( 'NONE', *, *, #133, .T. ) ;
#199 = SECURITY_CLASSIFICATION_LEVEL ( 'unclassified' ) ;
#200 = AXIS2_PLACEMENT_3D ( 'NONE', #191, #221, #61 ) ;
#201 = COORDINATED_UNIVERSAL_TIME_OFFSET ( 1, 0, .AHEAD. ) ;
#202 = CARTESIAN_POINT ( 'NONE',  ( 1.047444401652940007E-13, -3.673940397442059178E-15, 30.00000000000000000 ) ) ;
#203 = AXIS2_PLACEMENT_3D ( 'NONE', #79, #131, #75 ) ;
#204 = PLANE ( 'NONE',  #162 ) ;
#205 = CONICAL_SURFACE ( 'NONE', #68, 0.5500000000000001554, 0.7853981633974510546 ) ;
#206 = CARTESIAN_POINT ( 'NONE',  ( 1.040461438975253740E-13, -3.649447461459112464E-15, 29.80000000000000071 ) ) ;
#207 = VERTEX_POINT ( 'NONE', #111 ) ;
#208 = DIRECTION ( 'NONE',  ( 4.275831445896959482E-31, 1.000000000000000000, 1.224646799147353207E-16 ) ) ;
#209 = AXIS2_PLACEMENT_3D ( 'NONE', #113, #192, #189 ) ;
#210 = PRODUCT_DEFINITION_SHAPE ( 'NONE', 'NONE',  #155 ) ;
#211 = ORIENTED_EDGE ( 'NONE', *, *, #127, .T. ) ;
#212 = ORIENTED_EDGE ( 'NONE', *, *, #26, .T. ) ;
#213 = APPLICATION_PROTOCOL_DEFINITION ( 'international standard', 'config_control_design', 1994, #95 ) ;
#214 = EDGE_LOOP ( 'NONE', ( #117 ) ) ;
#215 = APPROVAL_STATUS ( 'not_yet_approved' ) ;
#216 = SHAPE_DEFINITION_REPRESENTATION ( #210, #40 ) ;
#217 = LOCAL_TIME ( 15, 47, 7.000000000000000000, #179 ) ;
#218 = FACE_OUTER_BOUND ( 'NONE', #197, .T. ) ;
#219 = MECHANICAL_CONTEXT ( 'NONE', #95, 'mechanical' ) ;
#220 = CARTESIAN_POINT ( 'NONE',  ( 3.142333204958820651E-14, -1.102182119232617911E-15, 9.000000000000001776 ) ) ;
#221 = DIRECTION ( 'NONE',  ( -3.491481338843133355E-15, 1.224646799147353207E-16, -1.000000000000000000 ) ) ;
#222 = DIRECTION ( 'NONE',  ( -4.275831445896958607E-31, -1.000000000000000000, -1.224646799147353207E-16 ) ) ;
#223 = CARTESIAN_POINT ( 'NONE',  ( 0.0000000000000000000, 0.0000000000000000000, 0.0000000000000000000 ) ) ;
ENDSEC;
END-ISO-10303-21;
