ISO-10303-21;
HEADER;
FILE_DESCRIPTION (( 'STEP AP203' ),
    '1' );
FILE_NAME ('37001.step',
    '2021-10-07T13:47:06',
    ( '' ),
    ( '' ),
    'SwSTEP 2.0',
    'SolidWorks 2019',
    '' );
FILE_SCHEMA (( 'CONFIG_CONTROL_DESIGN' ));
ENDSEC;

DATA;
#1 = FACE_OUTER_BOUND ( 'NONE', #148, .T. ) ;
#2 = CC_DESIGN_PERSON_AND_ORGANIZATION_ASSIGNMENT ( #208, #120, ( #73 ) ) ;
#3 = VERTEX_POINT ( 'NONE', #5 ) ;
#4 =( GEOMETRIC_REPRESENTATION_CONTEXT ( 3 ) GLOBAL_UNCERTAINTY_ASSIGNED_CONTEXT ( ( #205 ) ) GLOBAL_UNIT_ASSIGNED_CONTEXT ( ( #75, #56, #123 ) ) REPRESENTATION_CONTEXT ( 'NONE', 'WORKASPACE' ) );
#5 = CARTESIAN_POINT ( 'NONE',  ( 3.142333204958820020E-14, 0.5099999999999987876, 9.000000000000000000 ) ) ;
#6 = CARTESIAN_POINT ( 'NONE',  ( 3.142333204958820020E-14, -1.102182119232617714E-15, 9.000000000000000000 ) ) ;
#7 = MECHANICAL_CONTEXT ( 'NONE', #204, 'mechanical' ) ;
#8 = ORIENTED_EDGE ( 'NONE', *, *, #168, .T. ) ;
#9 = EDGE_CURVE ( 'NONE', #91, #91, #19, .T. ) ;
#10 = MANIFOLD_SOLID_BREP ( 'Corps-Déplacer/Copier1[2]', #59 ) ;
#11 = AXIS2_PLACEMENT_3D ( 'NONE', #206, #139, #135 ) ;
#12 = ORIENTED_EDGE ( 'NONE', *, *, #9, .F. ) ;
#13 = DATE_AND_TIME ( #156, #74 ) ;
#14 = CYLINDRICAL_SURFACE ( 'NONE', #11, 0.7499999999999986677 ) ;
#15 = DATE_TIME_ROLE ( 'creation_date' ) ;
#16 = DIRECTION ( 'NONE',  ( 0.0000000000000000000, 1.000000000000000000, 0.0000000000000000000 ) ) ;
#17 = ADVANCED_FACE ( 'NONE', ( #216 ), #127, .F. ) ;
#18 = CARTESIAN_POINT ( 'NONE',  ( 1.047444401652940007E-13, -3.673940397442059178E-15, 30.00000000000000000 ) ) ;
#19 = CIRCLE ( 'NONE', #209, 0.7499999999999975575 ) ;
#20 = CARTESIAN_POINT ( 'NONE',  ( 3.142333204958820020E-14, 0.5099999999999987876, 9.000000000000000000 ) ) ;
#21 = PERSON ( 'UNSPECIFIED', 'UNSPECIFIED', 'UNSPECIFIED', ('UNSPECIFIED'), ('UNSPECIFIED'), ('UNSPECIFIED') ) ;
#22 = DIRECTION ( 'NONE',  ( 0.0000000000000000000, 1.000000000000000000, 0.0000000000000000000 ) ) ;
#23 = APPLICATION_PROTOCOL_DEFINITION ( 'international standard', 'config_control_design', 1994, #217 ) ;
#24 = VERTEX_POINT ( 'NONE', #161 ) ;
#25 = APPROVAL_DATE_TIME ( #60, #89 ) ;
#26 = EDGE_LOOP ( 'NONE', ( #196 ) ) ;
#27 = AXIS2_PLACEMENT_3D ( 'NONE', #84, #32, #114 ) ;
#28 = SECURITY_CLASSIFICATION_LEVEL ( 'unclassified' ) ;
#29 = APPROVAL ( #152, 'UNSPECIFIED' ) ;
#30 = DATE_AND_TIME ( #52, #36 ) ;
#31 = DIRECTION ( 'NONE',  ( 3.491481338843133355E-15, -1.224646799147353207E-16, 1.000000000000000000 ) ) ;
#32 = DIRECTION ( 'NONE',  ( 3.491481338843133355E-15, -1.224646799147353207E-16, 1.000000000000000000 ) ) ;
#33 = AXIS2_PLACEMENT_3D ( 'NONE', #53, #82, #16 ) ;
#34 = CALENDAR_DATE ( 2021, 7, 10 ) ;
#35 = CARTESIAN_POINT ( 'NONE',  ( 3.142333204958820020E-14, 3.824387445787719657E-33, 9.000000000000000000 ) ) ;
#36 = LOCAL_TIME ( 15, 47, 6.000000000000000000, #192 ) ;
#37 = CARTESIAN_POINT ( 'NONE',  ( 1.069925755676044515E-15, 0.5099999999999988987, 0.3064389157040585676 ) ) ;
#38 = VERTEX_POINT ( 'NONE', #20 ) ;
#39 = PERSON_AND_ORGANIZATION_ROLE ( 'design_owner' ) ;
#40 = AXIS2_PLACEMENT_3D ( 'NONE', #50, #211, #92 ) ;
#41 = CARTESIAN_POINT ( 'NONE',  ( 1.047444401652940007E-13, -3.673940397442059178E-15, 30.00000000000000000 ) ) ;
#42 = CARTESIAN_POINT ( 'NONE',  ( 1.040461438975253740E-13, 0.7499999999999963363, 29.80000000000000071 ) ) ;
#43 = DIRECTION ( 'NONE',  ( 0.0000000000000000000, 1.000000000000000000, 0.0000000000000000000 ) ) ;
#44 = EDGE_LOOP ( 'NONE', ( #183 ) ) ;
#45 = SECURITY_CLASSIFICATION ( '', '', #28 ) ;
#46 = EDGE_LOOP ( 'NONE', ( #218 ) ) ;
#47 = DATE_AND_TIME ( #186, #140 ) ;
#48 = EDGE_LOOP ( 'NONE', ( #128 ) ) ;
#49 = APPROVAL_STATUS ( 'not_yet_approved' ) ;
#50 = CARTESIAN_POINT ( 'NONE',  ( 3.142333204958820020E-14, 3.824387445787719657E-33, 9.000000000000000000 ) ) ;
#51 = FACE_OUTER_BOUND ( 'NONE', #26, .T. ) ;
#52 = CALENDAR_DATE ( 2021, 7, 10 ) ;
#53 = CARTESIAN_POINT ( 'NONE',  ( 1.040461438975253740E-13, -3.649447461459112464E-15, 29.80000000000000071 ) ) ;
#54 = APPROVAL_PERSON_ORGANIZATION ( #115, #29, #68 ) ;
#55 = APPLICATION_PROTOCOL_DEFINITION ( 'international standard', 'config_control_design', 1994, #204 ) ;
#56 =( NAMED_UNIT ( * ) PLANE_ANGLE_UNIT ( ) SI_UNIT ( $, .RADIAN. ) );
#57 = DIRECTION ( 'NONE',  ( -3.491481338843133355E-15, 1.224646799147353207E-16, -1.000000000000000000 ) ) ;
#58 = PRODUCT ( '37001', '37001', '', ( #7 ) ) ;
#59 = CLOSED_SHELL ( 'NONE', ( #109, #197, #151 ) ) ;
#60 = DATE_AND_TIME ( #193, #121 ) ;
#61 = CARTESIAN_POINT ( 'NONE',  ( 3.287471358700138334E-14, -1.153089730691413329E-15, 9.415692193816530775 ) ) ;
#62 = ADVANCED_FACE ( 'NONE', ( #157, #172 ), #149, .T. ) ;
#63 = AXIS2_PLACEMENT_3D ( 'NONE', #158, #153, #69 ) ;
#64 = ORIENTED_EDGE ( 'NONE', *, *, #9, .T. ) ;
#65 = PRODUCT_RELATED_PRODUCT_CATEGORY ( 'detail', '', ( #58 ) ) ;
#66 = DATE_AND_TIME ( #34, #207 ) ;
#67 = EDGE_LOOP ( 'NONE', ( #94 ) ) ;
#68 = APPROVAL_ROLE ( '' ) ;
#69 = DIRECTION ( 'NONE',  ( 0.0000000000000000000, 1.000000000000000000, 0.0000000000000000000 ) ) ;
#70 = APPROVAL_PERSON_ORGANIZATION ( #97, #99, #113 ) ;
#71 = DIRECTION ( 'NONE',  ( 3.491481338843133355E-15, -1.224646799147353207E-16, 1.000000000000000000 ) ) ;
#72 = CARTESIAN_POINT ( 'NONE',  ( 1.047444401652940007E-13, 4.124339402320053683E-33, 30.00000000000000000 ) ) ;
#73 = PRODUCT_DEFINITION ( 'UNKNOWN', '', #165, #102 ) ;
#74 = LOCAL_TIME ( 15, 47, 6.000000000000000000, #79 ) ;
#75 =( LENGTH_UNIT ( ) NAMED_UNIT ( * ) SI_UNIT ( .MILLI., .METRE. ) );
#76 = AXIS2_PLACEMENT_3D ( 'NONE', #223, #117, #222 ) ;
#77 = PERSON_AND_ORGANIZATION ( #21, #141 ) ;
#78 = CIRCLE ( 'NONE', #195, 0.5099999999999997868 ) ;
#79 = COORDINATED_UNIVERSAL_TIME_OFFSET ( 1, 0, .AHEAD. ) ;
#80 = EDGE_LOOP ( 'NONE', ( #198 ) ) ;
#81 = SHAPE_DEFINITION_REPRESENTATION ( #87, #177 ) ;
#82 = DIRECTION ( 'NONE',  ( -3.491481338843133355E-15, 1.224646799147353207E-16, -1.000000000000000000 ) ) ;
#83 = PERSON_AND_ORGANIZATION ( #21, #141 ) ;
#84 = CARTESIAN_POINT ( 'NONE',  ( 3.287471358700138334E-14, -1.153089730691413329E-15, 9.415692193816530775 ) ) ;
#85 = DIRECTION ( 'NONE',  ( 0.0000000000000000000, 1.000000000000000000, 0.0000000000000000000 ) ) ;
#86 = CIRCLE ( 'NONE', #33, 0.7500000000000000000 ) ;
#87 = PRODUCT_DEFINITION_SHAPE ( 'NONE', 'NONE',  #73 ) ;
#88 = VERTEX_POINT ( 'NONE', #42 ) ;
#89 = APPROVAL ( #105, 'UNSPECIFIED' ) ;
#90 = AXIS2_PLACEMENT_3D ( 'NONE', #35, #71, #138 ) ;
#91 = VERTEX_POINT ( 'NONE', #126 ) ;
#92 = DIRECTION ( 'NONE',  ( -4.275831445896958607E-31, -1.000000000000000000, -1.224646799147353207E-16 ) ) ;
#93 = ADVANCED_FACE ( 'NONE', ( #174, #1 ), #14, .T. ) ;
#94 = ORIENTED_EDGE ( 'NONE', *, *, #168, .F. ) ;
#95 = EDGE_CURVE ( 'NONE', #88, #88, #86, .T. ) ;
#96 = ORIENTED_EDGE ( 'NONE', *, *, #106, .F. ) ;
#97 = PERSON_AND_ORGANIZATION ( #21, #141 ) ;
#98 = DIRECTION ( 'NONE',  ( -3.776333224288706011E-31, -1.000000000000000000, -1.062943306358340005E-16 ) ) ;
#99 = APPROVAL ( #49, 'UNSPECIFIED' ) ;
#100 = FACE_OUTER_BOUND ( 'NONE', #46, .T. ) ;
#101 = DIRECTION ( 'NONE',  ( -3.491481338843133355E-15, 1.224646799147353207E-16, -1.000000000000000000 ) ) ;
#102 = DESIGN_CONTEXT ( 'detailed design', #217, 'design' ) ;
#103 = CC_DESIGN_PERSON_AND_ORGANIZATION_ASSIGNMENT ( #83, #137, ( #45 ) ) ;
#104 = AXIS2_PLACEMENT_3D ( 'NONE', #18, #189, #85 ) ;
#105 = APPROVAL_STATUS ( 'not_yet_approved' ) ;
#106 = EDGE_CURVE ( 'NONE', #180, #180, #214, .T. ) ;
#107 = CC_DESIGN_APPROVAL ( #29, ( #165 ) ) ;
#108 = FACE_OUTER_BOUND ( 'NONE', #80, .T. ) ;
#109 = ADVANCED_FACE ( 'NONE', ( #190 ), #173, .T. ) ;
#110 = DIRECTION ( 'NONE',  ( 4.275831445896958607E-31, 1.000000000000000000, 1.224646799147353454E-16 ) ) ;
#111 = EDGE_LOOP ( 'NONE', ( #12 ) ) ;
#112 = EDGE_LOOP ( 'NONE', ( #96 ) ) ;
#113 = APPROVAL_ROLE ( '' ) ;
#114 = DIRECTION ( 'NONE',  ( 0.0000000000000000000, -1.000000000000000000, 0.0000000000000000000 ) ) ;
#115 = PERSON_AND_ORGANIZATION ( #21, #141 ) ;
#116 = FACE_OUTER_BOUND ( 'NONE', #185, .T. ) ;
#117 = DIRECTION ( 'NONE',  ( -3.491481338843133355E-15, 1.224646799147353207E-16, -1.000000000000000000 ) ) ;
#118 = AXIS2_PLACEMENT_3D ( 'NONE', #179, #142, #212 ) ;
#119 = CC_DESIGN_DATE_AND_TIME_ASSIGNMENT ( #30, #15, ( #73 ) ) ;
#120 = PERSON_AND_ORGANIZATION_ROLE ( 'creator' ) ;
#121 = LOCAL_TIME ( 15, 47, 6.000000000000000000, #124 ) ;
#122 = ADVANCED_FACE ( 'NONE', ( #116 ), #171, .F. ) ;
#123 =( NAMED_UNIT ( * ) SI_UNIT ( $, .STERADIAN. ) SOLID_ANGLE_UNIT ( ) );
#124 = COORDINATED_UNIVERSAL_TIME_OFFSET ( 1, 0, .AHEAD. ) ;
#125 = AXIS2_PLACEMENT_3D ( 'NONE', #72, #101, #155 ) ;
#126 = CARTESIAN_POINT ( 'NONE',  ( 3.287471358700138334E-14, 0.7499999999999963363, 9.415692193816530775 ) ) ;
#127 = PLANE ( 'NONE',  #125 ) ;
#128 = ORIENTED_EDGE ( 'NONE', *, *, #133, .F. ) ;
#129 = ADVANCED_FACE ( 'NONE', ( #51, #203 ), #184, .T. ) ;
#130 = EDGE_LOOP ( 'NONE', ( #8 ) ) ;
#131 = COORDINATED_UNIVERSAL_TIME_OFFSET ( 1, 0, .AHEAD. ) ;
#132 = DIRECTION ( 'NONE',  ( -3.491481338843133355E-15, 1.224646799147353207E-16, -1.000000000000000000 ) ) ;
#133 = EDGE_CURVE ( 'NONE', #38, #38, #159, .T. ) ;
#134 = PERSON_AND_ORGANIZATION ( #21, #141 ) ;
#135 = DIRECTION ( 'NONE',  ( 4.275831445896959482E-31, 1.000000000000000000, 1.224646799147353207E-16 ) ) ;
#136 = APPROVAL_PERSON_ORGANIZATION ( #77, #89, #144 ) ;
#137 = PERSON_AND_ORGANIZATION_ROLE ( 'classification_officer' ) ;
#138 = DIRECTION ( 'NONE',  ( -4.275831445896958607E-31, -1.000000000000000000, -1.224646799147353207E-16 ) ) ;
#139 = DIRECTION ( 'NONE',  ( -3.491481338843133355E-15, 1.224646799147353207E-16, -1.000000000000000000 ) ) ;
#140 = LOCAL_TIME ( 15, 47, 6.000000000000000000, #131 ) ;
#141 = ORGANIZATION ( 'UNSPECIFIED', 'UNSPECIFIED', '' ) ;
#142 = DIRECTION ( 'NONE',  ( 0.0000000000000000000, 0.0000000000000000000, 1.000000000000000000 ) ) ;
#143 = CARTESIAN_POINT ( 'NONE',  ( 0.0000000000000000000, 0.0000000000000000000, 0.0000000000000000000 ) ) ;
#144 = APPROVAL_ROLE ( '' ) ;
#145 = CC_DESIGN_PERSON_AND_ORGANIZATION_ASSIGNMENT ( #147, #200, ( #165 ) ) ;
#146 = AXIS2_PLACEMENT_3D ( 'NONE', #187, #31, #98 ) ;
#147 = PERSON_AND_ORGANIZATION ( #21, #141 ) ;
#148 = EDGE_LOOP ( 'NONE', ( #220 ) ) ;
#149 = CONICAL_SURFACE ( 'NONE', #27, 0.7499999999999975575, 0.5235987755982942637 ) ;
#150 = EDGE_LOOP ( 'NONE', ( #64 ) ) ;
#151 = ADVANCED_FACE ( 'NONE', ( #100 ), #201, .T. ) ;
#152 = APPROVAL_STATUS ( 'not_yet_approved' ) ;
#153 = DIRECTION ( 'NONE',  ( -3.491481338843133355E-15, 1.224646799147353207E-16, -1.000000000000000000 ) ) ;
#154 = PERSON_AND_ORGANIZATION_ROLE ( 'creator' ) ;
#155 = DIRECTION ( 'NONE',  ( 4.275831445896958607E-31, 1.000000000000000000, 1.224646799147353207E-16 ) ) ;
#156 = CALENDAR_DATE ( 2021, 7, 10 ) ;
#157 = FACE_BOUND ( 'NONE', #48, .T. ) ;
#158 = CARTESIAN_POINT ( 'NONE',  ( 3.142333204958820020E-14, -1.102182119232617714E-15, 9.000000000000000000 ) ) ;
#159 = CIRCLE ( 'NONE', #63, 0.5099999999999997868 ) ;
#160 = CYLINDRICAL_SURFACE ( 'NONE', #199, 0.5099999999999993427 ) ;
#161 = CARTESIAN_POINT ( 'NONE',  ( 1.047444401652940007E-13, 0.5499999999999964917, 30.00000000000000000 ) ) ;
#162 = AXIS2_PLACEMENT_3D ( 'NONE', #41, #178, #164 ) ;
#163 = CC_DESIGN_PERSON_AND_ORGANIZATION_ASSIGNMENT ( #213, #39, ( #58 ) ) ;
#164 = DIRECTION ( 'NONE',  ( 0.0000000000000000000, 1.000000000000000000, 0.0000000000000000000 ) ) ;
#165 = PRODUCT_DEFINITION_FORMATION_WITH_SPECIFIED_SOURCE ( 'ANY', '', #58, .NOT_KNOWN. ) ;
#166 = MANIFOLD_SOLID_BREP ( 'Corps-Déplacer/Copier1[1]', #219 ) ;
#167 = CC_DESIGN_APPROVAL ( #99, ( #45 ) ) ;
#168 = EDGE_CURVE ( 'NONE', #24, #24, #176, .T. ) ;
#169 = ORIENTED_EDGE ( 'NONE', *, *, #133, .T. ) ;
#170 = COORDINATED_UNIVERSAL_TIME_OFFSET ( 1, 0, .AHEAD. ) ;
#171 = PLANE ( 'NONE',  #90 ) ;
#172 = FACE_OUTER_BOUND ( 'NONE', #150, .T. ) ;
#173 = CONICAL_SURFACE ( 'NONE', #146, 0.5099999999999988987, 1.029744258676649649 ) ;
#174 = FACE_OUTER_BOUND ( 'NONE', #111, .T. ) ;
#175 = EDGE_CURVE ( 'NONE', #3, #3, #78, .T. ) ;
#176 = CIRCLE ( 'NONE', #162, 0.5500000000000001554 ) ;
#177 = ADVANCED_BREP_SHAPE_REPRESENTATION ( '37001', ( #166, #10, #118 ), #4 ) ;
#178 = DIRECTION ( 'NONE',  ( -3.491481338843133355E-15, 1.224646799147353207E-16, -1.000000000000000000 ) ) ;
#179 = CARTESIAN_POINT ( 'NONE',  ( 0.0000000000000000000, 0.0000000000000000000, 0.0000000000000000000 ) ) ;
#180 = VERTEX_POINT ( 'NONE', #37 ) ;
#181 = CC_DESIGN_APPROVAL ( #89, ( #73 ) ) ;
#182 = CC_DESIGN_PERSON_AND_ORGANIZATION_ASSIGNMENT ( #134, #154, ( #165 ) ) ;
#183 = ORIENTED_EDGE ( 'NONE', *, *, #106, .T. ) ;
#184 = CONICAL_SURFACE ( 'NONE', #104, 0.5500000000000001554, 0.7853981633974510546 ) ;
#185 = EDGE_LOOP ( 'NONE', ( #169 ) ) ;
#186 = CALENDAR_DATE ( 2021, 7, 10 ) ;
#187 = CARTESIAN_POINT ( 'NONE',  ( 1.069925755676044318E-15, -3.752794372511608250E-17, 0.3064389157040585121 ) ) ;
#188 = DATE_TIME_ROLE ( 'classification_date' ) ;
#189 = DIRECTION ( 'NONE',  ( -3.491481338843133355E-15, 1.224646799147353207E-16, -1.000000000000000000 ) ) ;
#190 = FACE_OUTER_BOUND ( 'NONE', #44, .T. ) ;
#191 = CC_DESIGN_SECURITY_CLASSIFICATION ( #45, ( #165 ) ) ;
#192 = COORDINATED_UNIVERSAL_TIME_OFFSET ( 1, 0, .AHEAD. ) ;
#193 = CALENDAR_DATE ( 2021, 7, 10 ) ;
#194 = FACE_OUTER_BOUND ( 'NONE', #112, .T. ) ;
#195 = AXIS2_PLACEMENT_3D ( 'NONE', #6, #57, #22 ) ;
#196 = ORIENTED_EDGE ( 'NONE', *, *, #95, .F. ) ;
#197 = ADVANCED_FACE ( 'NONE', ( #194, #108 ), #160, .T. ) ;
#198 = ORIENTED_EDGE ( 'NONE', *, *, #175, .T. ) ;
#199 = AXIS2_PLACEMENT_3D ( 'NONE', #143, #210, #110 ) ;
#200 = PERSON_AND_ORGANIZATION_ROLE ( 'design_supplier' ) ;
#201 = PLANE ( 'NONE',  #40 ) ;
#202 = APPROVAL_DATE_TIME ( #13, #99 ) ;
#203 = FACE_BOUND ( 'NONE', #130, .T. ) ;
#204 = APPLICATION_CONTEXT ( 'configuration controlled 3d designs of mechanical parts and assemblies' ) ;
#205 = UNCERTAINTY_MEASURE_WITH_UNIT (LENGTH_MEASURE( 1.000000000000000082E-05 ), #75, 'distance_accuracy_value', 'NONE');
#206 = CARTESIAN_POINT ( 'NONE',  ( 0.0000000000000000000, 0.0000000000000000000, 0.0000000000000000000 ) ) ;
#207 = LOCAL_TIME ( 15, 47, 6.000000000000000000, #170 ) ;
#208 = PERSON_AND_ORGANIZATION ( #21, #141 ) ;
#209 = AXIS2_PLACEMENT_3D ( 'NONE', #61, #132, #43 ) ;
#210 = DIRECTION ( 'NONE',  ( -3.491481338843133355E-15, 1.224646799147353207E-16, -1.000000000000000000 ) ) ;
#211 = DIRECTION ( 'NONE',  ( 3.491481338843133355E-15, -1.224646799147353207E-16, 1.000000000000000000 ) ) ;
#212 = DIRECTION ( 'NONE',  ( 1.000000000000000000, 0.0000000000000000000, 0.0000000000000000000 ) ) ;
#213 = PERSON_AND_ORGANIZATION ( #21, #141 ) ;
#214 = CIRCLE ( 'NONE', #76, 0.5099999999999988987 ) ;
#215 = CC_DESIGN_DATE_AND_TIME_ASSIGNMENT ( #47, #188, ( #45 ) ) ;
#216 = FACE_OUTER_BOUND ( 'NONE', #67, .T. ) ;
#217 = APPLICATION_CONTEXT ( 'configuration controlled 3d designs of mechanical parts and assemblies' ) ;
#218 = ORIENTED_EDGE ( 'NONE', *, *, #175, .F. ) ;
#219 = CLOSED_SHELL ( 'NONE', ( #122, #62, #93, #129, #17 ) ) ;
#220 = ORIENTED_EDGE ( 'NONE', *, *, #95, .T. ) ;
#221 = APPROVAL_DATE_TIME ( #66, #29 ) ;
#222 = DIRECTION ( 'NONE',  ( 3.776333224288706011E-31, 1.000000000000000000, 1.062943306358340005E-16 ) ) ;
#223 = CARTESIAN_POINT ( 'NONE',  ( 1.069925755676044318E-15, -3.752794372511608250E-17, 0.3064389157040585121 ) ) ;
ENDSEC;
END-ISO-10303-21;
