ISO-10303-21;
HEADER;
FILE_DESCRIPTION (( 'STEP AP203' ),
    '1' );
FILE_NAME ('37000.step',
    '2021-10-07T13:47:06',
    ( '' ),
    ( '' ),
    'SwSTEP 2.0',
    'SolidWorks 2019',
    '' );
FILE_SCHEMA (( 'CONFIG_CONTROL_DESIGN' ));
ENDSEC;

DATA;
#1 = APPLICATION_CONTEXT ( 'configuration controlled 3d designs of mechanical parts and assemblies' ) ;
#2 = FACE_OUTER_BOUND ( 'NONE', #148, .T. ) ;
#3 = CC_DESIGN_PERSON_AND_ORGANIZATION_ASSIGNMENT ( #223, #203, ( #101 ) ) ;
#4 = FACE_BOUND ( 'NONE', #190, .T. ) ;
#5 = AXIS2_PLACEMENT_3D ( 'NONE', #62, #188, #33 ) ;
#6 = CC_DESIGN_APPROVAL ( #168, ( #167 ) ) ;
#7 = VERTEX_POINT ( 'NONE', #103 ) ;
#8 = DIRECTION ( 'NONE',  ( 0.0000000000000000000, -1.000000000000000000, 0.0000000000000000000 ) ) ;
#9 = APPROVAL ( #31, 'UNSPECIFIED' ) ;
#10 = CARTESIAN_POINT ( 'NONE',  ( 1.047444401652940007E-13, 4.124339402320053683E-33, 30.00000000000000000 ) ) ;
#11 = AXIS2_PLACEMENT_3D ( 'NONE', #149, #134, #132 ) ;
#12 = PERSON_AND_ORGANIZATION ( #180, #73 ) ;
#13 = CARTESIAN_POINT ( 'NONE',  ( 0.0000000000000000000, 0.0000000000000000000, 0.0000000000000000000 ) ) ;
#14 = APPROVAL_DATE_TIME ( #123, #9 ) ;
#15 = LOCAL_TIME ( 15, 47, 5.000000000000000000, #74 ) ;
#16 = APPROVAL_PERSON_ORGANIZATION ( #12, #126, #89 ) ;
#17 = DATE_TIME_ROLE ( 'creation_date' ) ;
#18 = EDGE_LOOP ( 'NONE', ( #191 ) ) ;
#19 = ORIENTED_EDGE ( 'NONE', *, *, #131, .T. ) ;
#20 = FACE_BOUND ( 'NONE', #18, .T. ) ;
#21 = ADVANCED_FACE ( 'NONE', ( #145 ), #216, .T. ) ;
#22 = DIRECTION ( 'NONE',  ( 3.491481338843133355E-15, -1.224646799147353207E-16, 1.000000000000000000 ) ) ;
#23 = FACE_OUTER_BOUND ( 'NONE', #79, .T. ) ;
#24 = CLOSED_SHELL ( 'NONE', ( #158, #64, #25, #173, #117 ) ) ;
#25 = ADVANCED_FACE ( 'NONE', ( #215, #37 ), #99, .T. ) ;
#26 = PLANE ( 'NONE',  #198 ) ;
#27 = DIRECTION ( 'NONE',  ( 1.000000000000000000, 0.0000000000000000000, 0.0000000000000000000 ) ) ;
#28 = CALENDAR_DATE ( 2021, 7, 10 ) ;
#29 = COORDINATED_UNIVERSAL_TIME_OFFSET ( 1, 0, .AHEAD. ) ;
#30 =( GEOMETRIC_REPRESENTATION_CONTEXT ( 3 ) GLOBAL_UNCERTAINTY_ASSIGNED_CONTEXT ( ( #222 ) ) GLOBAL_UNIT_ASSIGNED_CONTEXT ( ( #107, #88, #40 ) ) REPRESENTATION_CONTEXT ( 'NONE', 'WORKASPACE' ) );
#31 = APPROVAL_STATUS ( 'not_yet_approved' ) ;
#32 = EDGE_LOOP ( 'NONE', ( #93 ) ) ;
#33 = DIRECTION ( 'NONE',  ( -3.813722662152950816E-31, -1.000000000000000000, -1.073467497510402831E-16 ) ) ;
#34 = EDGE_LOOP ( 'NONE', ( #113 ) ) ;
#35 = CARTESIAN_POINT ( 'NONE',  ( 3.290495070236415207E-14, -1.154150305930138373E-15, 9.424352447854374759 ) ) ;
#36 = CC_DESIGN_PERSON_AND_ORGANIZATION_ASSIGNMENT ( #57, #108, ( #167 ) ) ;
#37 = FACE_OUTER_BOUND ( 'NONE', #32, .T. ) ;
#38 = DIRECTION ( 'NONE',  ( 3.491481338843133355E-15, -1.224646799147353207E-16, 1.000000000000000000 ) ) ;
#39 = DIRECTION ( 'NONE',  ( -3.491481338843133355E-15, 1.224646799147353207E-16, -1.000000000000000000 ) ) ;
#40 =( NAMED_UNIT ( * ) SI_UNIT ( $, .STERADIAN. ) SOLID_ANGLE_UNIT ( ) );
#41 = CARTESIAN_POINT ( 'NONE',  ( 3.290495070236415207E-14, 0.7499999999999963363, 9.424352447854374759 ) ) ;
#42 = CC_DESIGN_DATE_AND_TIME_ASSIGNMENT ( #162, #17, ( #94 ) ) ;
#43 = VERTEX_POINT ( 'NONE', #41 ) ;
#44 = AXIS2_PLACEMENT_3D ( 'NONE', #52, #196, #119 ) ;
#45 = CC_DESIGN_APPROVAL ( #9, ( #101 ) ) ;
#46 = COORDINATED_UNIVERSAL_TIME_OFFSET ( 1, 0, .AHEAD. ) ;
#47 = EDGE_LOOP ( 'NONE', ( #114 ) ) ;
#48 = FACE_OUTER_BOUND ( 'NONE', #47, .T. ) ;
#49 = AXIS2_PLACEMENT_3D ( 'NONE', #136, #87, #195 ) ;
#50 = CARTESIAN_POINT ( 'NONE',  ( 1.059436287483141837E-15, -3.716002270820317592E-17, 0.3034346126089206841 ) ) ;
#51 = CARTESIAN_POINT ( 'NONE',  ( 1.047444401652940007E-13, 0.5499999999999964917, 30.00000000000000000 ) ) ;
#52 = CARTESIAN_POINT ( 'NONE',  ( 3.142333204958820020E-14, -1.102182119232617714E-15, 9.000000000000000000 ) ) ;
#53 = CARTESIAN_POINT ( 'NONE',  ( 1.059436287483142035E-15, 0.5049999999999988942, 0.3034346126089207396 ) ) ;
#54 = DATE_AND_TIME ( #159, #83 ) ;
#55 = CALENDAR_DATE ( 2021, 7, 10 ) ;
#56 = AXIS2_PLACEMENT_3D ( 'NONE', #176, #39, #71 ) ;
#57 = PERSON_AND_ORGANIZATION ( #180, #73 ) ;
#58 = CC_DESIGN_PERSON_AND_ORGANIZATION_ASSIGNMENT ( #90, #106, ( #82 ) ) ;
#59 = APPLICATION_CONTEXT ( 'configuration controlled 3d designs of mechanical parts and assemblies' ) ;
#60 = CALENDAR_DATE ( 2021, 7, 10 ) ;
#61 = CC_DESIGN_SECURITY_CLASSIFICATION ( #167, ( #101 ) ) ;
#62 = CARTESIAN_POINT ( 'NONE',  ( 1.059436287483141837E-15, -3.716002270820317592E-17, 0.3034346126089206841 ) ) ;
#63 = APPROVAL_ROLE ( '' ) ;
#64 = ADVANCED_FACE ( 'NONE', ( #20, #194 ), #151, .T. ) ;
#65 = AXIS2_PLACEMENT_3D ( 'NONE', #197, #211, #178 ) ;
#66 = CARTESIAN_POINT ( 'NONE',  ( 0.0000000000000000000, 0.0000000000000000000, 0.0000000000000000000 ) ) ;
#67 = AXIS2_PLACEMENT_3D ( 'NONE', #50, #154, #69 ) ;
#68 = FACE_OUTER_BOUND ( 'NONE', #171, .T. ) ;
#69 = DIRECTION ( 'NONE',  ( 3.813722662152950816E-31, 1.000000000000000000, 1.073467497510402831E-16 ) ) ;
#70 = DIRECTION ( 'NONE',  ( 3.491481338843133355E-15, -1.224646799147353207E-16, 1.000000000000000000 ) ) ;
#71 = DIRECTION ( 'NONE',  ( 0.0000000000000000000, 1.000000000000000000, 0.0000000000000000000 ) ) ;
#72 = PERSON_AND_ORGANIZATION ( #180, #73 ) ;
#73 = ORGANIZATION ( 'UNSPECIFIED', 'UNSPECIFIED', '' ) ;
#74 = COORDINATED_UNIVERSAL_TIME_OFFSET ( 1, 0, .AHEAD. ) ;
#75 = AXIS2_PLACEMENT_3D ( 'NONE', #115, #38, #98 ) ;
#76 = EDGE_CURVE ( 'NONE', #212, #212, #137, .T. ) ;
#77 = EDGE_CURVE ( 'NONE', #100, #100, #141, .T. ) ;
#78 = LOCAL_TIME ( 15, 47, 5.000000000000000000, #29 ) ;
#79 = EDGE_LOOP ( 'NONE', ( #164 ) ) ;
#80 = CYLINDRICAL_SURFACE ( 'NONE', #11, 0.5049999999999990052 ) ;
#81 = CARTESIAN_POINT ( 'NONE',  ( 3.142333204958820020E-14, -1.102182119232617714E-15, 9.000000000000000000 ) ) ;
#82 = PRODUCT ( '37000', '37000', '', ( #219 ) ) ;
#83 = LOCAL_TIME ( 15, 47, 5.000000000000000000, #160 ) ;
#84 = LOCAL_TIME ( 15, 47, 5.000000000000000000, #46 ) ;
#85 = DIRECTION ( 'NONE',  ( -4.275831445896958607E-31, -1.000000000000000000, -1.224646799147353207E-16 ) ) ;
#86 = DIRECTION ( 'NONE',  ( 0.0000000000000000000, 1.000000000000000000, 0.0000000000000000000 ) ) ;
#87 = DIRECTION ( 'NONE',  ( -3.491481338843133355E-15, 1.224646799147353207E-16, -1.000000000000000000 ) ) ;
#88 =( NAMED_UNIT ( * ) PLANE_ANGLE_UNIT ( ) SI_UNIT ( $, .RADIAN. ) );
#89 = APPROVAL_ROLE ( '' ) ;
#90 = PERSON_AND_ORGANIZATION ( #180, #73 ) ;
#91 = PERSON_AND_ORGANIZATION_ROLE ( 'creator' ) ;
#92 = SHAPE_DEFINITION_REPRESENTATION ( #214, #193 ) ;
#93 = ORIENTED_EDGE ( 'NONE', *, *, #77, .T. ) ;
#94 = PRODUCT_DEFINITION ( 'UNKNOWN', '', #101, #163 ) ;
#95 = ORIENTED_EDGE ( 'NONE', *, *, #76, .T. ) ;
#96 = ORIENTED_EDGE ( 'NONE', *, *, #77, .F. ) ;
#97 = CIRCLE ( 'NONE', #67, 0.5049999999999988942 ) ;
#98 = DIRECTION ( 'NONE',  ( -4.275831445896958607E-31, -1.000000000000000000, -1.224646799147353207E-16 ) ) ;
#99 = CYLINDRICAL_SURFACE ( 'NONE', #166, 0.7499999999999986677 ) ;
#100 = VERTEX_POINT ( 'NONE', #153 ) ;
#101 = PRODUCT_DEFINITION_FORMATION_WITH_SPECIFIED_SOURCE ( 'ANY', '', #82, .NOT_KNOWN. ) ;
#102 = CC_DESIGN_APPROVAL ( #126, ( #94 ) ) ;
#103 = CARTESIAN_POINT ( 'NONE',  ( 3.142333204958820020E-14, 0.5049999999999981171, 9.000000000000000000 ) ) ;
#104 = CC_DESIGN_PERSON_AND_ORGANIZATION_ASSIGNMENT ( #142, #124, ( #101 ) ) ;
#105 = DIRECTION ( 'NONE',  ( 4.275831445896959482E-31, 1.000000000000000000, 1.224646799147353207E-16 ) ) ;
#106 = PERSON_AND_ORGANIZATION_ROLE ( 'design_owner' ) ;
#107 =( LENGTH_UNIT ( ) NAMED_UNIT ( * ) SI_UNIT ( .MILLI., .METRE. ) );
#108 = PERSON_AND_ORGANIZATION_ROLE ( 'classification_officer' ) ;
#109 = CLOSED_SHELL ( 'NONE', ( #21, #217, #205 ) ) ;
#110 = EDGE_CURVE ( 'NONE', #7, #7, #144, .T. ) ;
#111 = ORIENTED_EDGE ( 'NONE', *, *, #152, .T. ) ;
#112 = DATE_TIME_ROLE ( 'classification_date' ) ;
#113 = ORIENTED_EDGE ( 'NONE', *, *, #161, .T. ) ;
#114 = ORIENTED_EDGE ( 'NONE', *, *, #76, .F. ) ;
#115 = CARTESIAN_POINT ( 'NONE',  ( 3.142333204958820020E-14, 3.786893451221168154E-33, 9.000000000000000000 ) ) ;
#116 = DIRECTION ( 'NONE',  ( -3.491481338843133355E-15, 1.224646799147353207E-16, -1.000000000000000000 ) ) ;
#117 = ADVANCED_FACE ( 'NONE', ( #48 ), #26, .F. ) ;
#118 = CARTESIAN_POINT ( 'NONE',  ( 1.040461438975253740E-13, -3.649447461459112464E-15, 29.80000000000000071 ) ) ;
#119 = DIRECTION ( 'NONE',  ( 0.0000000000000000000, 1.000000000000000000, 0.0000000000000000000 ) ) ;
#120 = AXIS2_PLACEMENT_3D ( 'NONE', #81, #121, #155 ) ;
#121 = DIRECTION ( 'NONE',  ( -3.491481338843133355E-15, 1.224646799147353207E-16, -1.000000000000000000 ) ) ;
#122 = APPROVAL_DATE_TIME ( #54, #126 ) ;
#123 = DATE_AND_TIME ( #55, #15 ) ;
#124 = PERSON_AND_ORGANIZATION_ROLE ( 'design_supplier' ) ;
#125 = DATE_AND_TIME ( #60, #78 ) ;
#126 = APPROVAL ( #139, 'UNSPECIFIED' ) ;
#127 = DATE_AND_TIME ( #169, #84 ) ;
#128 = ORIENTED_EDGE ( 'NONE', *, *, #161, .F. ) ;
#129 = CC_DESIGN_PERSON_AND_ORGANIZATION_ASSIGNMENT ( #200, #91, ( #94 ) ) ;
#130 = EDGE_LOOP ( 'NONE', ( #96 ) ) ;
#131 = EDGE_CURVE ( 'NONE', #218, #218, #97, .T. ) ;
#132 = DIRECTION ( 'NONE',  ( 4.275831445896959482E-31, 1.000000000000000000, 1.224646799147353454E-16 ) ) ;
#133 = CIRCLE ( 'NONE', #49, 0.7499999999999975575 ) ;
#134 = DIRECTION ( 'NONE',  ( -3.491481338843133355E-15, 1.224646799147353207E-16, -1.000000000000000000 ) ) ;
#135 = DIRECTION ( 'NONE',  ( -3.491481338843133355E-15, 1.224646799147353207E-16, -1.000000000000000000 ) ) ;
#136 = CARTESIAN_POINT ( 'NONE',  ( 3.290495070236415207E-14, -1.154150305930138373E-15, 9.424352447854374759 ) ) ;
#137 = CIRCLE ( 'NONE', #65, 0.5500000000000001554 ) ;
#138 = PLANE ( 'NONE',  #75 ) ;
#139 = APPROVAL_STATUS ( 'not_yet_approved' ) ;
#140 = APPROVAL_ROLE ( '' ) ;
#141 = CIRCLE ( 'NONE', #187, 0.7500000000000000000 ) ;
#142 = PERSON_AND_ORGANIZATION ( #180, #73 ) ;
#143 = CARTESIAN_POINT ( 'NONE',  ( 3.142333204958820020E-14, 0.5049999999999981171, 9.000000000000000000 ) ) ;
#144 = CIRCLE ( 'NONE', #44, 0.5049999999999991163 ) ;
#145 = FACE_OUTER_BOUND ( 'NONE', #146, .T. ) ;
#146 = EDGE_LOOP ( 'NONE', ( #19 ) ) ;
#147 = APPROVAL_DATE_TIME ( #127, #168 ) ;
#148 = EDGE_LOOP ( 'NONE', ( #210 ) ) ;
#149 = CARTESIAN_POINT ( 'NONE',  ( 0.0000000000000000000, 0.0000000000000000000, 0.0000000000000000000 ) ) ;
#150 = FACE_OUTER_BOUND ( 'NONE', #130, .T. ) ;
#151 = CONICAL_SURFACE ( 'NONE', #201, 0.7499999999999975575, 0.5235987755982947078 ) ;
#152 = EDGE_CURVE ( 'NONE', #43, #43, #133, .T. ) ;
#153 = CARTESIAN_POINT ( 'NONE',  ( 1.040461438975253740E-13, 0.7499999999999963363, 29.80000000000000071 ) ) ;
#154 = DIRECTION ( 'NONE',  ( -3.491481338843133355E-15, 1.224646799147353207E-16, -1.000000000000000000 ) ) ;
#155 = DIRECTION ( 'NONE',  ( 0.0000000000000000000, 1.000000000000000000, 0.0000000000000000000 ) ) ;
#156 = CONICAL_SURFACE ( 'NONE', #56, 0.5500000000000001554, 0.7853981633974510546 ) ;
#157 = APPLICATION_PROTOCOL_DEFINITION ( 'international standard', 'config_control_design', 1994, #59 ) ;
#158 = ADVANCED_FACE ( 'NONE', ( #2 ), #175, .F. ) ;
#159 = CALENDAR_DATE ( 2021, 7, 10 ) ;
#160 = COORDINATED_UNIVERSAL_TIME_OFFSET ( 1, 0, .AHEAD. ) ;
#161 = EDGE_CURVE ( 'NONE', #202, #202, #172, .T. ) ;
#162 = DATE_AND_TIME ( #28, #220 ) ;
#163 = DESIGN_CONTEXT ( 'detailed design', #59, 'design' ) ;
#164 = ORIENTED_EDGE ( 'NONE', *, *, #131, .F. ) ;
#165 = PERSON_AND_ORGANIZATION ( #180, #73 ) ;
#166 = AXIS2_PLACEMENT_3D ( 'NONE', #66, #135, #105 ) ;
#167 = SECURITY_CLASSIFICATION ( '', '', #221 ) ;
#168 = APPROVAL ( #206, 'UNSPECIFIED' ) ;
#169 = CALENDAR_DATE ( 2021, 7, 10 ) ;
#170 = EDGE_LOOP ( 'NONE', ( #111 ) ) ;
#171 = EDGE_LOOP ( 'NONE', ( #128 ) ) ;
#172 = CIRCLE ( 'NONE', #120, 0.5049999999999991163 ) ;
#173 = ADVANCED_FACE ( 'NONE', ( #150, #4 ), #156, .T. ) ;
#174 = FACE_OUTER_BOUND ( 'NONE', #34, .T. ) ;
#175 = PLANE ( 'NONE',  #181 ) ;
#176 = CARTESIAN_POINT ( 'NONE',  ( 1.047444401652940007E-13, -3.673940397442059178E-15, 30.00000000000000000 ) ) ;
#177 = CARTESIAN_POINT ( 'NONE',  ( 3.142333204958820020E-14, 3.786893451221168154E-33, 9.000000000000000000 ) ) ;
#178 = DIRECTION ( 'NONE',  ( 0.0000000000000000000, 1.000000000000000000, 0.0000000000000000000 ) ) ;
#179 = DIRECTION ( 'NONE',  ( 0.0000000000000000000, 0.0000000000000000000, 1.000000000000000000 ) ) ;
#180 = PERSON ( 'UNSPECIFIED', 'UNSPECIFIED', 'UNSPECIFIED', ('UNSPECIFIED'), ('UNSPECIFIED'), ('UNSPECIFIED') ) ;
#181 = AXIS2_PLACEMENT_3D ( 'NONE', #177, #22, #85 ) ;
#182 = APPROVAL_PERSON_ORGANIZATION ( #165, #168, #63 ) ;
#183 = COORDINATED_UNIVERSAL_TIME_OFFSET ( 1, 0, .AHEAD. ) ;
#184 = PRODUCT_RELATED_PRODUCT_CATEGORY ( 'detail', '', ( #82 ) ) ;
#185 = APPLICATION_PROTOCOL_DEFINITION ( 'international standard', 'config_control_design', 1994, #1 ) ;
#186 = EDGE_LOOP ( 'NONE', ( #209 ) ) ;
#187 = AXIS2_PLACEMENT_3D ( 'NONE', #118, #199, #86 ) ;
#188 = DIRECTION ( 'NONE',  ( 3.491481338843133355E-15, -1.224646799147353207E-16, 1.000000000000000000 ) ) ;
#189 = MANIFOLD_SOLID_BREP ( 'Corps-Déplacer/Copier1[2]', #109 ) ;
#190 = EDGE_LOOP ( 'NONE', ( #95 ) ) ;
#191 = ORIENTED_EDGE ( 'NONE', *, *, #110, .F. ) ;
#192 = MANIFOLD_SOLID_BREP ( 'Corps-Déplacer/Copier1[1]', #24 ) ;
#193 = ADVANCED_BREP_SHAPE_REPRESENTATION ( '37000', ( #192, #189, #207 ), #30 ) ;
#194 = FACE_OUTER_BOUND ( 'NONE', #170, .T. ) ;
#195 = DIRECTION ( 'NONE',  ( 0.0000000000000000000, 1.000000000000000000, 0.0000000000000000000 ) ) ;
#196 = DIRECTION ( 'NONE',  ( -3.491481338843133355E-15, 1.224646799147353207E-16, -1.000000000000000000 ) ) ;
#197 = CARTESIAN_POINT ( 'NONE',  ( 1.047444401652940007E-13, -3.673940397442059178E-15, 30.00000000000000000 ) ) ;
#198 = AXIS2_PLACEMENT_3D ( 'NONE', #10, #116, #213 ) ;
#199 = DIRECTION ( 'NONE',  ( -3.491481338843133355E-15, 1.224646799147353207E-16, -1.000000000000000000 ) ) ;
#200 = PERSON_AND_ORGANIZATION ( #180, #73 ) ;
#201 = AXIS2_PLACEMENT_3D ( 'NONE', #35, #70, #8 ) ;
#202 = VERTEX_POINT ( 'NONE', #143 ) ;
#203 = PERSON_AND_ORGANIZATION_ROLE ( 'creator' ) ;
#204 = APPROVAL_PERSON_ORGANIZATION ( #72, #9, #140 ) ;
#205 = ADVANCED_FACE ( 'NONE', ( #68 ), #138, .T. ) ;
#206 = APPROVAL_STATUS ( 'not_yet_approved' ) ;
#207 = AXIS2_PLACEMENT_3D ( 'NONE', #13, #179, #27 ) ;
#208 = CC_DESIGN_DATE_AND_TIME_ASSIGNMENT ( #125, #112, ( #167 ) ) ;
#209 = ORIENTED_EDGE ( 'NONE', *, *, #152, .F. ) ;
#210 = ORIENTED_EDGE ( 'NONE', *, *, #110, .T. ) ;
#211 = DIRECTION ( 'NONE',  ( -3.491481338843133355E-15, 1.224646799147353207E-16, -1.000000000000000000 ) ) ;
#212 = VERTEX_POINT ( 'NONE', #51 ) ;
#213 = DIRECTION ( 'NONE',  ( 4.275831445896958607E-31, 1.000000000000000000, 1.224646799147353207E-16 ) ) ;
#214 = PRODUCT_DEFINITION_SHAPE ( 'NONE', 'NONE',  #94 ) ;
#215 = FACE_OUTER_BOUND ( 'NONE', #186, .T. ) ;
#216 = CONICAL_SURFACE ( 'NONE', #5, 0.5049999999999988942, 1.029744258676649649 ) ;
#217 = ADVANCED_FACE ( 'NONE', ( #23, #174 ), #80, .T. ) ;
#218 = VERTEX_POINT ( 'NONE', #53 ) ;
#219 = MECHANICAL_CONTEXT ( 'NONE', #1, 'mechanical' ) ;
#220 = LOCAL_TIME ( 15, 47, 5.000000000000000000, #183 ) ;
#221 = SECURITY_CLASSIFICATION_LEVEL ( 'unclassified' ) ;
#222 = UNCERTAINTY_MEASURE_WITH_UNIT (LENGTH_MEASURE( 1.000000000000000082E-05 ), #107, 'distance_accuracy_value', 'NONE');
#223 = PERSON_AND_ORGANIZATION ( #180, #73 ) ;
ENDSEC;
END-ISO-10303-21;
