ISO-10303-21;
HEADER;
FILE_DESCRIPTION (( 'STEP AP203' ),
    '1' );
FILE_NAME ('36999.step',
    '2021-10-07T13:47:05',
    ( '' ),
    ( '' ),
    'SwSTEP 2.0',
    'SolidWorks 2019',
    '' );
FILE_SCHEMA (( 'CONFIG_CONTROL_DESIGN' ));
ENDSEC;

DATA;
#1 = EDGE_LOOP ( 'NONE', ( #211 ) ) ;
#2 = ORIENTED_EDGE ( 'NONE', *, *, #47, .F. ) ;
#3 = CARTESIAN_POINT ( 'NONE',  ( 3.142333204958820651E-14, 0.4999999999999987232, 9.000000000000001776 ) ) ;
#4 = DIRECTION ( 'NONE',  ( -4.275831445896958607E-31, -1.000000000000000000, -1.224646799147353207E-16 ) ) ;
#5 = APPROVAL_PERSON_ORGANIZATION ( #219, #158, #134 ) ;
#6 = DIRECTION ( 'NONE',  ( 4.275831445896958607E-31, 1.000000000000000000, 1.224646799147353207E-16 ) ) ;
#7 = CARTESIAN_POINT ( 'NONE',  ( 1.047444401652940007E-13, -3.673940397442059178E-15, 30.00000000000000000 ) ) ;
#8 = ADVANCED_FACE ( 'NONE', ( #54, #70 ), #83, .T. ) ;
#9 = CARTESIAN_POINT ( 'NONE',  ( 1.040461438975253740E-13, -3.649447461459112464E-15, 29.80000000000000071 ) ) ;
#10 = DATE_AND_TIME ( #172, #150 ) ;
#11 =( NAMED_UNIT ( * ) SI_UNIT ( $, .STERADIAN. ) SOLID_ANGLE_UNIT ( ) );
#12 = APPLICATION_PROTOCOL_DEFINITION ( 'international standard', 'config_control_design', 1994, #104 ) ;
#13 = AXIS2_PLACEMENT_3D ( 'NONE', #151, #185, #4 ) ;
#14 = AXIS2_PLACEMENT_3D ( 'NONE', #75, #145, #199 ) ;
#15 = MECHANICAL_CONTEXT ( 'NONE', #104, 'mechanical' ) ;
#16 = ORIENTED_EDGE ( 'NONE', *, *, #86, .T. ) ;
#17 = EDGE_LOOP ( 'NONE', ( #196 ) ) ;
#18 = CC_DESIGN_PERSON_AND_ORGANIZATION_ASSIGNMENT ( #155, #45, ( #198 ) ) ;
#19 = EDGE_LOOP ( 'NONE', ( #139 ) ) ;
#20 = SECURITY_CLASSIFICATION ( '', '', #218 ) ;
#21 = VERTEX_POINT ( 'NONE', #165 ) ;
#22 = CC_DESIGN_DATE_AND_TIME_ASSIGNMENT ( #191, #115, ( #198 ) ) ;
#23 = DIRECTION ( 'NONE',  ( -3.491481338843133355E-15, 1.224646799147353207E-16, -1.000000000000000000 ) ) ;
#24 = DIRECTION ( 'NONE',  ( 3.491481338843133355E-15, -1.224646799147353207E-16, 1.000000000000000000 ) ) ;
#25 = CIRCLE ( 'NONE', #173, 0.4999999999999997780 ) ;
#26 = DIRECTION ( 'NONE',  ( -3.491481338843133355E-15, 1.224646799147353207E-16, -1.000000000000000000 ) ) ;
#27 = DIRECTION ( 'NONE',  ( -3.491481338843133355E-15, 1.224646799147353207E-16, -1.000000000000000000 ) ) ;
#28 = PERSON_AND_ORGANIZATION_ROLE ( 'design_supplier' ) ;
#29 = PERSON_AND_ORGANIZATION ( #67, #72 ) ;
#30 = APPROVAL ( #85, 'UNSPECIFIED' ) ;
#31 = DIRECTION ( 'NONE',  ( 0.0000000000000000000, 0.0000000000000000000, 1.000000000000000000 ) ) ;
#32 = AXIS2_PLACEMENT_3D ( 'NONE', #214, #108, #112 ) ;
#33 = CC_DESIGN_SECURITY_CLASSIFICATION ( #20, ( #65 ) ) ;
#34 = APPROVAL_STATUS ( 'not_yet_approved' ) ;
#35 = EDGE_LOOP ( 'NONE', ( #179 ) ) ;
#36 = PRODUCT_RELATED_PRODUCT_CATEGORY ( 'detail', '', ( #223 ) ) ;
#37 = ORIENTED_EDGE ( 'NONE', *, *, #40, .T. ) ;
#38 = FACE_OUTER_BOUND ( 'NONE', #162, .T. ) ;
#39 = FACE_OUTER_BOUND ( 'NONE', #101, .T. ) ;
#40 = EDGE_CURVE ( 'NONE', #21, #21, #89, .T. ) ;
#41 = VERTEX_POINT ( 'NONE', #111 ) ;
#42 = FACE_BOUND ( 'NONE', #141, .T. ) ;
#43 = CALENDAR_DATE ( 2021, 7, 10 ) ;
#44 = PERSON_AND_ORGANIZATION ( #67, #72 ) ;
#45 = PERSON_AND_ORGANIZATION_ROLE ( 'creator' ) ;
#46 = CALENDAR_DATE ( 2021, 7, 10 ) ;
#47 = EDGE_CURVE ( 'NONE', #41, #41, #160, .T. ) ;
#48 = APPROVAL_DATE_TIME ( #152, #158 ) ;
#49 = AXIS2_PLACEMENT_3D ( 'NONE', #161, #121, #122 ) ;
#50 = MANIFOLD_SOLID_BREP ( 'Corps-Déplacer/Copier1[2]', #116 ) ;
#51 = SHAPE_DEFINITION_REPRESENTATION ( #69, #168 ) ;
#52 =( GEOMETRIC_REPRESENTATION_CONTEXT ( 3 ) GLOBAL_UNCERTAINTY_ASSIGNED_CONTEXT ( ( #157 ) ) GLOBAL_UNIT_ASSIGNED_CONTEXT ( ( #156, #222, #11 ) ) REPRESENTATION_CONTEXT ( 'NONE', 'WORKASPACE' ) );
#53 = ORIENTED_EDGE ( 'NONE', *, *, #86, .F. ) ;
#54 = FACE_OUTER_BOUND ( 'NONE', #17, .T. ) ;
#55 = MANIFOLD_SOLID_BREP ( 'Corps-Déplacer/Copier1[1]', #167 ) ;
#56 = EDGE_CURVE ( 'NONE', #87, #87, #188, .T. ) ;
#57 = DIRECTION ( 'NONE',  ( 3.491481338843133355E-15, -1.224646799147353207E-16, 1.000000000000000000 ) ) ;
#58 = AXIS2_PLACEMENT_3D ( 'NONE', #181, #92, #60 ) ;
#59 = PLANE ( 'NONE',  #180 ) ;
#60 = DIRECTION ( 'NONE',  ( 0.0000000000000000000, 1.000000000000000000, 0.0000000000000000000 ) ) ;
#61 = DIRECTION ( 'NONE',  ( -3.491481338843133355E-15, 1.224646799147353207E-16, -1.000000000000000000 ) ) ;
#62 = VERTEX_POINT ( 'NONE', #82 ) ;
#63 = CARTESIAN_POINT ( 'NONE',  ( 1.040461438975253740E-13, 0.7499999999999963363, 29.80000000000000071 ) ) ;
#64 = APPLICATION_PROTOCOL_DEFINITION ( 'international standard', 'config_control_design', 1994, #114 ) ;
#65 = PRODUCT_DEFINITION_FORMATION_WITH_SPECIFIED_SOURCE ( 'ANY', '', #223, .NOT_KNOWN. ) ;
#66 = CC_DESIGN_DATE_AND_TIME_ASSIGNMENT ( #10, #113, ( #20 ) ) ;
#67 = PERSON ( 'UNSPECIFIED', 'UNSPECIFIED', 'UNSPECIFIED', ('UNSPECIFIED'), ('UNSPECIFIED'), ('UNSPECIFIED') ) ;
#68 = CC_DESIGN_PERSON_AND_ORGANIZATION_ASSIGNMENT ( #44, #95, ( #20 ) ) ;
#69 = PRODUCT_DEFINITION_SHAPE ( 'NONE', 'NONE',  #198 ) ;
#70 = FACE_OUTER_BOUND ( 'NONE', #142, .T. ) ;
#71 = VERTEX_POINT ( 'NONE', #143 ) ;
#72 = ORGANIZATION ( 'UNSPECIFIED', 'UNSPECIFIED', '' ) ;
#73 = DIRECTION ( 'NONE',  ( 0.0000000000000000000, -1.000000000000000000, 0.0000000000000000000 ) ) ;
#74 = FACE_OUTER_BOUND ( 'NONE', #19, .T. ) ;
#75 = CARTESIAN_POINT ( 'NONE',  ( 1.048946819290236399E-15, -3.679210169129017074E-17, 0.3004303095137819679 ) ) ;
#76 = CONICAL_SURFACE ( 'NONE', #208, 0.5500000000000001554, 0.7853981633974510546 ) ;
#77 = CARTESIAN_POINT ( 'NONE',  ( 3.142333204958820651E-14, -1.102182119232617911E-15, 9.000000000000001776 ) ) ;
#78 = CC_DESIGN_PERSON_AND_ORGANIZATION_ASSIGNMENT ( #203, #207, ( #223 ) ) ;
#79 = CALENDAR_DATE ( 2021, 7, 10 ) ;
#80 = APPROVAL_STATUS ( 'not_yet_approved' ) ;
#81 = CC_DESIGN_APPROVAL ( #158, ( #198 ) ) ;
#82 = CARTESIAN_POINT ( 'NONE',  ( 1.048946819290236596E-15, 0.4999999999999975020, 0.3004303095137820234 ) ) ;
#83 = CYLINDRICAL_SURFACE ( 'NONE', #49, 0.7499999999999986677 ) ;
#84 = CIRCLE ( 'NONE', #144, 0.4999999999999975020 ) ;
#85 = APPROVAL_STATUS ( 'not_yet_approved' ) ;
#86 = EDGE_CURVE ( 'NONE', #71, #71, #25, .T. ) ;
#87 = VERTEX_POINT ( 'NONE', #3 ) ;
#88 = FACE_OUTER_BOUND ( 'NONE', #35, .T. ) ;
#89 = CIRCLE ( 'NONE', #58, 0.7499999999999975575 ) ;
#90 = ADVANCED_FACE ( 'NONE', ( #131 ), #125, .F. ) ;
#91 = DIRECTION ( 'NONE',  ( 0.0000000000000000000, 1.000000000000000000, 0.0000000000000000000 ) ) ;
#92 = DIRECTION ( 'NONE',  ( -3.491481338843133355E-15, 1.224646799147353207E-16, -1.000000000000000000 ) ) ;
#93 = DIRECTION ( 'NONE',  ( 3.851859888774490974E-31, 1.000000000000000000, 1.084202172485509857E-16 ) ) ;
#94 = CC_DESIGN_PERSON_AND_ORGANIZATION_ASSIGNMENT ( #221, #217, ( #65 ) ) ;
#95 = PERSON_AND_ORGANIZATION_ROLE ( 'classification_officer' ) ;
#96 = DIRECTION ( 'NONE',  ( 1.000000000000000000, 0.0000000000000000000, 0.0000000000000000000 ) ) ;
#97 = APPROVAL_DATE_TIME ( #175, #107 ) ;
#98 = COORDINATED_UNIVERSAL_TIME_OFFSET ( 1, 0, .AHEAD. ) ;
#99 = AXIS2_PLACEMENT_3D ( 'NONE', #132, #31, #96 ) ;
#100 = ADVANCED_FACE ( 'NONE', ( #42, #39 ), #154, .T. ) ;
#101 = EDGE_LOOP ( 'NONE', ( #37 ) ) ;
#102 = AXIS2_PLACEMENT_3D ( 'NONE', #182, #57, #73 ) ;
#103 = CC_DESIGN_APPROVAL ( #107, ( #65 ) ) ;
#104 = APPLICATION_CONTEXT ( 'configuration controlled 3d designs of mechanical parts and assemblies' ) ;
#105 = FACE_OUTER_BOUND ( 'NONE', #1, .T. ) ;
#106 = CARTESIAN_POINT ( 'NONE',  ( 1.048946819290236399E-15, -3.679210169129017074E-17, 0.3004303095137819679 ) ) ;
#107 = APPROVAL ( #34, 'UNSPECIFIED' ) ;
#108 = DIRECTION ( 'NONE',  ( -3.491481338843133355E-15, 1.224646799147353207E-16, -1.000000000000000000 ) ) ;
#109 = CIRCLE ( 'NONE', #205, 0.7500000000000000000 ) ;
#110 = LOCAL_TIME ( 15, 47, 5.000000000000000000, #98 ) ;
#111 = CARTESIAN_POINT ( 'NONE',  ( 1.047444401652940007E-13, 0.5499999999999964917, 30.00000000000000000 ) ) ;
#112 = DIRECTION ( 'NONE',  ( 4.275831445896958607E-31, 1.000000000000000000, 1.224646799147353207E-16 ) ) ;
#113 = DATE_TIME_ROLE ( 'classification_date' ) ;
#114 = APPLICATION_CONTEXT ( 'configuration controlled 3d designs of mechanical parts and assemblies' ) ;
#115 = DATE_TIME_ROLE ( 'creation_date' ) ;
#116 = CLOSED_SHELL ( 'NONE', ( #120, #130, #147 ) ) ;
#117 = COORDINATED_UNIVERSAL_TIME_OFFSET ( 1, 0, .AHEAD. ) ;
#118 = ORIENTED_EDGE ( 'NONE', *, *, #137, .F. ) ;
#119 = EDGE_LOOP ( 'NONE', ( #16 ) ) ;
#120 = ADVANCED_FACE ( 'NONE', ( #124 ), #129, .T. ) ;
#121 = DIRECTION ( 'NONE',  ( -3.491481338843133355E-15, 1.224646799147353207E-16, -1.000000000000000000 ) ) ;
#122 = DIRECTION ( 'NONE',  ( 4.275831445896959482E-31, 1.000000000000000000, 1.224646799147353207E-16 ) ) ;
#123 = DESIGN_CONTEXT ( 'detailed design', #114, 'design' ) ;
#124 = FACE_OUTER_BOUND ( 'NONE', #197, .T. ) ;
#125 = PLANE ( 'NONE',  #13 ) ;
#126 = CC_DESIGN_PERSON_AND_ORGANIZATION_ASSIGNMENT ( #204, #28, ( #65 ) ) ;
#127 = DIRECTION ( 'NONE',  ( 0.0000000000000000000, 1.000000000000000000, 0.0000000000000000000 ) ) ;
#128 = FACE_OUTER_BOUND ( 'NONE', #193, .T. ) ;
#129 = CONICAL_SURFACE ( 'NONE', #14, 0.4999999999999975020, 1.029744258676649649 ) ;
#130 = ADVANCED_FACE ( 'NONE', ( #38, #74 ), #166, .T. ) ;
#131 = FACE_OUTER_BOUND ( 'NONE', #119, .T. ) ;
#132 = CARTESIAN_POINT ( 'NONE',  ( 0.0000000000000000000, 0.0000000000000000000, 0.0000000000000000000 ) ) ;
#133 = LOCAL_TIME ( 15, 47, 5.000000000000000000, #206 ) ;
#134 = APPROVAL_ROLE ( '' ) ;
#135 = ADVANCED_FACE ( 'NONE', ( #105, #201 ), #76, .T. ) ;
#136 = APPROVAL_ROLE ( '' ) ;
#137 = EDGE_CURVE ( 'NONE', #62, #62, #84, .T. ) ;
#138 = APPROVAL_ROLE ( '' ) ;
#139 = ORIENTED_EDGE ( 'NONE', *, *, #56, .T. ) ;
#140 = APPROVAL_PERSON_ORGANIZATION ( #29, #30, #138 ) ;
#141 = EDGE_LOOP ( 'NONE', ( #53 ) ) ;
#142 = EDGE_LOOP ( 'NONE', ( #164 ) ) ;
#143 = CARTESIAN_POINT ( 'NONE',  ( 3.142333204958820651E-14, 0.4999999999999987232, 9.000000000000001776 ) ) ;
#144 = AXIS2_PLACEMENT_3D ( 'NONE', #106, #23, #93 ) ;
#145 = DIRECTION ( 'NONE',  ( 3.491481338843133355E-15, -1.224646799147353207E-16, 1.000000000000000000 ) ) ;
#146 = DIRECTION ( 'NONE',  ( -3.491481338843133355E-15, 1.224646799147353207E-16, -1.000000000000000000 ) ) ;
#147 = ADVANCED_FACE ( 'NONE', ( #88 ), #59, .T. ) ;
#148 = DIRECTION ( 'NONE',  ( -4.275831445896958607E-31, -1.000000000000000000, -1.224646799147353207E-16 ) ) ;
#149 = AXIS2_PLACEMENT_3D ( 'NONE', #77, #61, #127 ) ;
#150 = LOCAL_TIME ( 15, 47, 5.000000000000000000, #174 ) ;
#151 = CARTESIAN_POINT ( 'NONE',  ( 3.142333204958820651E-14, -2.086929557694220523E-31, 9.000000000000001776 ) ) ;
#152 = DATE_AND_TIME ( #79, #133 ) ;
#153 = ADVANCED_FACE ( 'NONE', ( #128 ), #171, .F. ) ;
#154 = CONICAL_SURFACE ( 'NONE', #102, 0.7499999999999975575, 0.5235987755982928205 ) ;
#155 = PERSON_AND_ORGANIZATION ( #67, #72 ) ;
#156 =( LENGTH_UNIT ( ) NAMED_UNIT ( * ) SI_UNIT ( .MILLI., .METRE. ) );
#157 = UNCERTAINTY_MEASURE_WITH_UNIT (LENGTH_MEASURE( 1.000000000000000082E-05 ), #156, 'distance_accuracy_value', 'NONE');
#158 = APPROVAL ( #80, 'UNSPECIFIED' ) ;
#159 = APPROVAL_DATE_TIME ( #176, #30 ) ;
#160 = CIRCLE ( 'NONE', #220, 0.5500000000000001554 ) ;
#161 = CARTESIAN_POINT ( 'NONE',  ( 0.0000000000000000000, 0.0000000000000000000, 0.0000000000000000000 ) ) ;
#162 = EDGE_LOOP ( 'NONE', ( #118 ) ) ;
#163 = CC_DESIGN_APPROVAL ( #30, ( #20 ) ) ;
#164 = ORIENTED_EDGE ( 'NONE', *, *, #183, .T. ) ;
#165 = CARTESIAN_POINT ( 'NONE',  ( 3.293518781772693974E-14, 0.7499999999999963363, 9.433012701892222296 ) ) ;
#166 = CYLINDRICAL_SURFACE ( 'NONE', #32, 0.4999999999999987232 ) ;
#167 = CLOSED_SHELL ( 'NONE', ( #90, #100, #8, #135, #153 ) ) ;
#168 = ADVANCED_BREP_SHAPE_REPRESENTATION ( '36999', ( #55, #50, #99 ), #52 ) ;
#169 = CARTESIAN_POINT ( 'NONE',  ( 1.047444401652940007E-13, 4.124339402320053683E-33, 30.00000000000000000 ) ) ;
#170 = DIRECTION ( 'NONE',  ( 0.0000000000000000000, 1.000000000000000000, 0.0000000000000000000 ) ) ;
#171 = PLANE ( 'NONE',  #213 ) ;
#172 = CALENDAR_DATE ( 2021, 7, 10 ) ;
#173 = AXIS2_PLACEMENT_3D ( 'NONE', #202, #26, #170 ) ;
#174 = COORDINATED_UNIVERSAL_TIME_OFFSET ( 1, 0, .AHEAD. ) ;
#175 = DATE_AND_TIME ( #46, #110 ) ;
#176 = DATE_AND_TIME ( #192, #177 ) ;
#177 = LOCAL_TIME ( 15, 47, 5.000000000000000000, #117 ) ;
#178 = ORIENTED_EDGE ( 'NONE', *, *, #137, .T. ) ;
#179 = ORIENTED_EDGE ( 'NONE', *, *, #56, .F. ) ;
#180 = AXIS2_PLACEMENT_3D ( 'NONE', #184, #24, #148 ) ;
#181 = CARTESIAN_POINT ( 'NONE',  ( 3.293518781772693974E-14, -1.155210881168863614E-15, 9.433012701892222296 ) ) ;
#182 = CARTESIAN_POINT ( 'NONE',  ( 3.293518781772693974E-14, -1.155210881168863614E-15, 9.433012701892222296 ) ) ;
#183 = EDGE_CURVE ( 'NONE', #190, #190, #109, .T. ) ;
#184 = CARTESIAN_POINT ( 'NONE',  ( 3.142333204958820651E-14, -2.086929557694220523E-31, 9.000000000000001776 ) ) ;
#185 = DIRECTION ( 'NONE',  ( 3.491481338843133355E-15, -1.224646799147353207E-16, 1.000000000000000000 ) ) ;
#186 = CARTESIAN_POINT ( 'NONE',  ( 1.047444401652940007E-13, -3.673940397442059178E-15, 30.00000000000000000 ) ) ;
#187 = PERSON_AND_ORGANIZATION ( #67, #72 ) ;
#188 = CIRCLE ( 'NONE', #149, 0.4999999999999997780 ) ;
#189 = COORDINATED_UNIVERSAL_TIME_OFFSET ( 1, 0, .AHEAD. ) ;
#190 = VERTEX_POINT ( 'NONE', #63 ) ;
#191 = DATE_AND_TIME ( #43, #209 ) ;
#192 = CALENDAR_DATE ( 2021, 7, 10 ) ;
#193 = EDGE_LOOP ( 'NONE', ( #2 ) ) ;
#194 = EDGE_LOOP ( 'NONE', ( #210 ) ) ;
#195 = APPROVAL_PERSON_ORGANIZATION ( #187, #107, #136 ) ;
#196 = ORIENTED_EDGE ( 'NONE', *, *, #40, .F. ) ;
#197 = EDGE_LOOP ( 'NONE', ( #178 ) ) ;
#198 = PRODUCT_DEFINITION ( 'UNKNOWN', '', #65, #123 ) ;
#199 = DIRECTION ( 'NONE',  ( -3.851859888774490974E-31, -1.000000000000000000, -1.084202172485509857E-16 ) ) ;
#200 = DIRECTION ( 'NONE',  ( -3.491481338843133355E-15, 1.224646799147353207E-16, -1.000000000000000000 ) ) ;
#201 = FACE_BOUND ( 'NONE', #194, .T. ) ;
#202 = CARTESIAN_POINT ( 'NONE',  ( 3.142333204958820651E-14, -1.102182119232617911E-15, 9.000000000000001776 ) ) ;
#203 = PERSON_AND_ORGANIZATION ( #67, #72 ) ;
#204 = PERSON_AND_ORGANIZATION ( #67, #72 ) ;
#205 = AXIS2_PLACEMENT_3D ( 'NONE', #9, #146, #215 ) ;
#206 = COORDINATED_UNIVERSAL_TIME_OFFSET ( 1, 0, .AHEAD. ) ;
#207 = PERSON_AND_ORGANIZATION_ROLE ( 'design_owner' ) ;
#208 = AXIS2_PLACEMENT_3D ( 'NONE', #186, #27, #91 ) ;
#209 = LOCAL_TIME ( 15, 47, 5.000000000000000000, #189 ) ;
#210 = ORIENTED_EDGE ( 'NONE', *, *, #47, .T. ) ;
#211 = ORIENTED_EDGE ( 'NONE', *, *, #183, .F. ) ;
#212 = DIRECTION ( 'NONE',  ( 0.0000000000000000000, 1.000000000000000000, 0.0000000000000000000 ) ) ;
#213 = AXIS2_PLACEMENT_3D ( 'NONE', #169, #216, #6 ) ;
#214 = CARTESIAN_POINT ( 'NONE',  ( 0.0000000000000000000, 0.0000000000000000000, 0.0000000000000000000 ) ) ;
#215 = DIRECTION ( 'NONE',  ( 0.0000000000000000000, 1.000000000000000000, 0.0000000000000000000 ) ) ;
#216 = DIRECTION ( 'NONE',  ( -3.491481338843133355E-15, 1.224646799147353207E-16, -1.000000000000000000 ) ) ;
#217 = PERSON_AND_ORGANIZATION_ROLE ( 'creator' ) ;
#218 = SECURITY_CLASSIFICATION_LEVEL ( 'unclassified' ) ;
#219 = PERSON_AND_ORGANIZATION ( #67, #72 ) ;
#220 = AXIS2_PLACEMENT_3D ( 'NONE', #7, #200, #212 ) ;
#221 = PERSON_AND_ORGANIZATION ( #67, #72 ) ;
#222 =( NAMED_UNIT ( * ) PLANE_ANGLE_UNIT ( ) SI_UNIT ( $, .RADIAN. ) );
#223 = PRODUCT ( '36999', '36999', '', ( #15 ) ) ;
ENDSEC;
END-ISO-10303-21;
