ISO-10303-21;
HEADER;
FILE_DESCRIPTION (( 'STEP AP203' ),
    '1' );
FILE_NAME ('36998.step',
    '2021-10-07T13:47:04',
    ( '' ),
    ( '' ),
    'SwSTEP 2.0',
    'SolidWorks 2019',
    '' );
FILE_SCHEMA (( 'CONFIG_CONTROL_DESIGN' ));
ENDSEC;

DATA;
#1 = PRODUCT_RELATED_PRODUCT_CATEGORY ( 'detail', '', ( #93 ) ) ;
#2 = CIRCLE ( 'NONE', #9, 0.4949999999999981637 ) ;
#3 = ORIENTED_EDGE ( 'NONE', *, *, #172, .T. ) ;
#4 = DIRECTION ( 'NONE',  ( -4.275831445896958607E-31, -1.000000000000000000, -1.224646799147353207E-16 ) ) ;
#5 = DATE_TIME_ROLE ( 'creation_date' ) ;
#6 = DIRECTION ( 'NONE',  ( -3.491481338843133355E-15, 1.224646799147353207E-16, -1.000000000000000000 ) ) ;
#7 = PLANE ( 'NONE',  #158 ) ;
#8 = FACE_OUTER_BOUND ( 'NONE', #147, .T. ) ;
#9 = AXIS2_PLACEMENT_3D ( 'NONE', #84, #218, #133 ) ;
#10 = APPROVAL_PERSON_ORGANIZATION ( #37, #120, #148 ) ;
#11 = CARTESIAN_POINT ( 'NONE',  ( 2.947394359424658774E-14, 0.7499999999999963363, 8.441672955930068056 ) ) ;
#12 = CARTESIAN_POINT ( 'NONE',  ( 2.793185071074506684E-14, -9.797174393178825657E-16, 8.000000000000000000 ) ) ;
#13 = CARTESIAN_POINT ( 'NONE',  ( 0.0000000000000000000, 0.0000000000000000000, 0.0000000000000000000 ) ) ;
#14 = ADVANCED_FACE ( 'NONE', ( #51 ), #175, .T. ) ;
#15 = CIRCLE ( 'NONE', #76, 0.4949999999999974976 ) ;
#16 = CC_DESIGN_APPROVAL ( #38, ( #59 ) ) ;
#17 = APPLICATION_CONTEXT ( 'configuration controlled 3d designs of mechanical parts and assemblies' ) ;
#18 = COORDINATED_UNIVERSAL_TIME_OFFSET ( 1, 0, .AHEAD. ) ;
#19 = EDGE_CURVE ( 'NONE', #103, #103, #144, .T. ) ;
#20 = PERSON_AND_ORGANIZATION ( #135, #163 ) ;
#21 = EDGE_LOOP ( 'NONE', ( #211 ) ) ;
#22 = CC_DESIGN_APPROVAL ( #33, ( #73 ) ) ;
#23 = CARTESIAN_POINT ( 'NONE',  ( 2.793185071074506684E-14, 3.711905462088068568E-33, 8.000000000000000000 ) ) ;
#24 = DATE_AND_TIME ( #42, #159 ) ;
#25 = ORIENTED_EDGE ( 'NONE', *, *, #19, .F. ) ;
#26 = DIRECTION ( 'NONE',  ( 4.275831445896958607E-31, 1.000000000000000000, 1.224646799147353207E-16 ) ) ;
#27 = DIRECTION ( 'NONE',  ( 0.0000000000000000000, -1.000000000000000000, 0.0000000000000000000 ) ) ;
#28 = DIRECTION ( 'NONE',  ( -3.491481338843133355E-15, 1.224646799147353207E-16, -1.000000000000000000 ) ) ;
#29 = DIRECTION ( 'NONE',  ( 4.275831445896959482E-31, 1.000000000000000000, 1.224646799147353207E-16 ) ) ;
#30 = AXIS2_PLACEMENT_3D ( 'NONE', #12, #28, #98 ) ;
#31 = VERTEX_POINT ( 'NONE', #11 ) ;
#32 = APPROVAL_DATE_TIME ( #69, #33 ) ;
#33 = APPROVAL ( #106, 'UNSPECIFIED' ) ;
#34 = DIRECTION ( 'NONE',  ( 1.000000000000000000, 0.0000000000000000000, 0.0000000000000000000 ) ) ;
#35 = AXIS2_PLACEMENT_3D ( 'NONE', #114, #179, #27 ) ;
#36 = DIRECTION ( 'NONE',  ( 3.491481338843133355E-15, -1.224646799147353207E-16, 1.000000000000000000 ) ) ;
#37 = PERSON_AND_ORGANIZATION ( #135, #163 ) ;
#38 = APPROVAL ( #213, 'UNSPECIFIED' ) ;
#39 = PERSON_AND_ORGANIZATION ( #135, #163 ) ;
#40 = EDGE_LOOP ( 'NONE', ( #192 ) ) ;
#41 = EDGE_CURVE ( 'NONE', #196, #196, #107, .T. ) ;
#42 = CALENDAR_DATE ( 2021, 7, 10 ) ;
#43 = CARTESIAN_POINT ( 'NONE',  ( 1.047444401652940007E-13, -3.673940397442059178E-15, 30.00000000000000000 ) ) ;
#44 = FACE_OUTER_BOUND ( 'NONE', #142, .T. ) ;
#45 = VERTEX_POINT ( 'NONE', #167 ) ;
#46 = CARTESIAN_POINT ( 'NONE',  ( 1.038457351097334116E-15, -3.642418067437726416E-17, 0.2974260064186441399 ) ) ;
#47 = CARTESIAN_POINT ( 'NONE',  ( 0.0000000000000000000, 0.0000000000000000000, 0.0000000000000000000 ) ) ;
#48 = AXIS2_PLACEMENT_3D ( 'NONE', #43, #61, #180 ) ;
#49 = PRODUCT_DEFINITION_FORMATION_WITH_SPECIFIED_SOURCE ( 'ANY', '', #93, .NOT_KNOWN. ) ;
#50 = MANIFOLD_SOLID_BREP ( 'Corps-Déplacer/Copier1[1]', #124 ) ;
#51 = FACE_OUTER_BOUND ( 'NONE', #58, .T. ) ;
#52 = APPROVAL_ROLE ( '' ) ;
#53 = ADVANCED_FACE ( 'NONE', ( #168 ), #7, .F. ) ;
#54 = EDGE_LOOP ( 'NONE', ( #208 ) ) ;
#55 = EDGE_LOOP ( 'NONE', ( #146 ) ) ;
#56 = PERSON_AND_ORGANIZATION_ROLE ( 'creator' ) ;
#57 = APPROVAL_DATE_TIME ( #97, #38 ) ;
#58 = EDGE_LOOP ( 'NONE', ( #188 ) ) ;
#59 = SECURITY_CLASSIFICATION ( '', '', #143 ) ;
#60 = PERSON_AND_ORGANIZATION ( #135, #163 ) ;
#61 = DIRECTION ( 'NONE',  ( -3.491481338843133355E-15, 1.224646799147353207E-16, -1.000000000000000000 ) ) ;
#62 = DIRECTION ( 'NONE',  ( -3.491481338843133355E-15, 1.224646799147353207E-16, -1.000000000000000000 ) ) ;
#63 = DIRECTION ( 'NONE',  ( 4.275831445896958607E-31, 1.000000000000000000, 1.224646799147353207E-16 ) ) ;
#64 = ADVANCED_FACE ( 'NONE', ( #195, #153 ), #221, .T. ) ;
#65 = AXIS2_PLACEMENT_3D ( 'NONE', #13, #183, #34 ) ;
#66 = CC_DESIGN_APPROVAL ( #120, ( #49 ) ) ;
#67 = DIRECTION ( 'NONE',  ( -3.890767564418677787E-31, -1.000000000000000000, -1.095153709581323098E-16 ) ) ;
#68 = CYLINDRICAL_SURFACE ( 'NONE', #209, 0.7499999999999986677 ) ;
#69 = DATE_AND_TIME ( #160, #190 ) ;
#70 = COORDINATED_UNIVERSAL_TIME_OFFSET ( 1, 0, .AHEAD. ) ;
#71 = CONICAL_SURFACE ( 'NONE', #35, 0.7499999999999974465, 0.5235987755982930425 ) ;
#72 = PRODUCT_DEFINITION_SHAPE ( 'NONE', 'NONE',  #73 ) ;
#73 = PRODUCT_DEFINITION ( 'UNKNOWN', '', #49, #197 ) ;
#74 = EDGE_LOOP ( 'NONE', ( #123 ) ) ;
#75 = PERSON_AND_ORGANIZATION ( #135, #163 ) ;
#76 = AXIS2_PLACEMENT_3D ( 'NONE', #46, #136, #200 ) ;
#77 = ORIENTED_EDGE ( 'NONE', *, *, #206, .T. ) ;
#78 = DATE_TIME_ROLE ( 'classification_date' ) ;
#79 = CALENDAR_DATE ( 2021, 7, 10 ) ;
#80 = CIRCLE ( 'NONE', #201, 0.7499999999999974465 ) ;
#81 = EDGE_LOOP ( 'NONE', ( #77 ) ) ;
#82 = FACE_OUTER_BOUND ( 'NONE', #96, .T. ) ;
#83 = CC_DESIGN_PERSON_AND_ORGANIZATION_ASSIGNMENT ( #20, #56, ( #49 ) ) ;
#84 = CARTESIAN_POINT ( 'NONE',  ( 2.793185071074506684E-14, -9.797174393178825657E-16, 8.000000000000000000 ) ) ;
#85 = FACE_OUTER_BOUND ( 'NONE', #40, .T. ) ;
#86 = AXIS2_PLACEMENT_3D ( 'NONE', #187, #220, #130 ) ;
#87 = VERTEX_POINT ( 'NONE', #104 ) ;
#88 = CARTESIAN_POINT ( 'NONE',  ( 1.040461438975253740E-13, 0.7499999999999963363, 29.80000000000000071 ) ) ;
#89 = APPLICATION_PROTOCOL_DEFINITION ( 'international standard', 'config_control_design', 1994, #17 ) ;
#90 = PERSON_AND_ORGANIZATION_ROLE ( 'design_owner' ) ;
#91 = CC_DESIGN_PERSON_AND_ORGANIZATION_ASSIGNMENT ( #39, #122, ( #59 ) ) ;
#92 = CARTESIAN_POINT ( 'NONE',  ( 2.793185071074506684E-14, 0.4949999999999971645, 8.000000000000000000 ) ) ;
#93 = PRODUCT ( '36998', '36998', '', ( #157 ) ) ;
#94 = CIRCLE ( 'NONE', #105, 0.5500000000000001554 ) ;
#95 = DATE_AND_TIME ( #79, #191 ) ;
#96 = EDGE_LOOP ( 'NONE', ( #25 ) ) ;
#97 = DATE_AND_TIME ( #193, #210 ) ;
#98 = DIRECTION ( 'NONE',  ( 0.0000000000000000000, 1.000000000000000000, 0.0000000000000000000 ) ) ;
#99 = CC_DESIGN_PERSON_AND_ORGANIZATION_ASSIGNMENT ( #60, #189, ( #49 ) ) ;
#100 = FACE_BOUND ( 'NONE', #21, .T. ) ;
#101 = PLANE ( 'NONE',  #109 ) ;
#102 = CC_DESIGN_DATE_AND_TIME_ASSIGNMENT ( #204, #5, ( #73 ) ) ;
#103 = VERTEX_POINT ( 'NONE', #88 ) ;
#104 = CARTESIAN_POINT ( 'NONE',  ( 1.047444401652940007E-13, 0.5499999999999964917, 30.00000000000000000 ) ) ;
#105 = AXIS2_PLACEMENT_3D ( 'NONE', #198, #165, #181 ) ;
#106 = APPROVAL_STATUS ( 'not_yet_approved' ) ;
#107 = CIRCLE ( 'NONE', #30, 0.4949999999999981637 ) ;
#108 = COORDINATED_UNIVERSAL_TIME_OFFSET ( 1, 0, .AHEAD. ) ;
#109 = AXIS2_PLACEMENT_3D ( 'NONE', #150, #166, #26 ) ;
#110 = CONICAL_SURFACE ( 'NONE', #48, 0.5500000000000001554, 0.7853981633974510546 ) ;
#111 = EDGE_LOOP ( 'NONE', ( #176 ) ) ;
#112 = COORDINATED_UNIVERSAL_TIME_OFFSET ( 1, 0, .AHEAD. ) ;
#113 = ADVANCED_FACE ( 'NONE', ( #164 ), #178, .T. ) ;
#114 = CARTESIAN_POINT ( 'NONE',  ( 2.947394359424658774E-14, -1.033806776492853313E-15, 8.441672955930068056 ) ) ;
#115 = DIRECTION ( 'NONE',  ( -4.275831445896958607E-31, -1.000000000000000000, -1.224646799147353207E-16 ) ) ;
#116 = DIRECTION ( 'NONE',  ( -3.491481338843133355E-15, 1.224646799147353207E-16, -1.000000000000000000 ) ) ;
#117 = CARTESIAN_POINT ( 'NONE',  ( 2.947394359424658774E-14, -1.033806776492853313E-15, 8.441672955930068056 ) ) ;
#118 = AXIS2_PLACEMENT_3D ( 'NONE', #154, #129, #67 ) ;
#119 =( LENGTH_UNIT ( ) NAMED_UNIT ( * ) SI_UNIT ( .MILLI., .METRE. ) );
#120 = APPROVAL ( #173, 'UNSPECIFIED' ) ;
#121 = ADVANCED_FACE ( 'NONE', ( #82, #194 ), #110, .T. ) ;
#122 = PERSON_AND_ORGANIZATION_ROLE ( 'classification_officer' ) ;
#123 = ORIENTED_EDGE ( 'NONE', *, *, #206, .F. ) ;
#124 = CLOSED_SHELL ( 'NONE', ( #53, #199, #141, #121, #128 ) ) ;
#125 = APPROVAL_PERSON_ORGANIZATION ( #75, #38, #52 ) ;
#126 = ORIENTED_EDGE ( 'NONE', *, *, #156, .T. ) ;
#127 = SHAPE_DEFINITION_REPRESENTATION ( #72, #170 ) ;
#128 = ADVANCED_FACE ( 'NONE', ( #134 ), #101, .F. ) ;
#129 = DIRECTION ( 'NONE',  ( 3.491481338843133355E-15, -1.224646799147353207E-16, 1.000000000000000000 ) ) ;
#130 = DIRECTION ( 'NONE',  ( 0.0000000000000000000, 1.000000000000000000, 0.0000000000000000000 ) ) ;
#131 = MANIFOLD_SOLID_BREP ( 'Corps-Déplacer/Copier1[2]', #171 ) ;
#132 = APPROVAL_PERSON_ORGANIZATION ( #205, #33, #169 ) ;
#133 = DIRECTION ( 'NONE',  ( 0.0000000000000000000, 1.000000000000000000, 0.0000000000000000000 ) ) ;
#134 = FACE_OUTER_BOUND ( 'NONE', #74, .T. ) ;
#135 = PERSON ( 'UNSPECIFIED', 'UNSPECIFIED', 'UNSPECIFIED', ('UNSPECIFIED'), ('UNSPECIFIED'), ('UNSPECIFIED') ) ;
#136 = DIRECTION ( 'NONE',  ( -3.491481338843133355E-15, 1.224646799147353207E-16, -1.000000000000000000 ) ) ;
#137 = PERSON_AND_ORGANIZATION_ROLE ( 'creator' ) ;
#138 = CC_DESIGN_PERSON_AND_ORGANIZATION_ASSIGNMENT ( #222, #137, ( #73 ) ) ;
#139 = CALENDAR_DATE ( 2021, 7, 10 ) ;
#140 = PERSON_AND_ORGANIZATION ( #135, #163 ) ;
#141 = ADVANCED_FACE ( 'NONE', ( #8, #85 ), #68, .T. ) ;
#142 = EDGE_LOOP ( 'NONE', ( #3 ) ) ;
#143 = SECURITY_CLASSIFICATION_LEVEL ( 'unclassified' ) ;
#144 = CIRCLE ( 'NONE', #86, 0.7500000000000000000 ) ;
#145 = EDGE_LOOP ( 'NONE', ( #126 ) ) ;
#146 = ORIENTED_EDGE ( 'NONE', *, *, #216, .T. ) ;
#147 = EDGE_LOOP ( 'NONE', ( #149 ) ) ;
#148 = APPROVAL_ROLE ( '' ) ;
#149 = ORIENTED_EDGE ( 'NONE', *, *, #172, .F. ) ;
#150 = CARTESIAN_POINT ( 'NONE',  ( 1.047444401652940007E-13, 4.124339402320053683E-33, 30.00000000000000000 ) ) ;
#151 = DIRECTION ( 'NONE',  ( 3.491481338843133355E-15, -1.224646799147353207E-16, 1.000000000000000000 ) ) ;
#152 = LOCAL_TIME ( 15, 47, 4.000000000000000000, #70 ) ;
#153 = FACE_OUTER_BOUND ( 'NONE', #55, .T. ) ;
#154 = CARTESIAN_POINT ( 'NONE',  ( 1.038457351097334116E-15, -3.642418067437726416E-17, 0.2974260064186441399 ) ) ;
#155 = VERTEX_POINT ( 'NONE', #92 ) ;
#156 = EDGE_CURVE ( 'NONE', #45, #45, #15, .T. ) ;
#157 = MECHANICAL_CONTEXT ( 'NONE', #17, 'mechanical' ) ;
#158 = AXIS2_PLACEMENT_3D ( 'NONE', #215, #151, #115 ) ;
#159 = LOCAL_TIME ( 15, 47, 4.000000000000000000, #108 ) ;
#160 = CALENDAR_DATE ( 2021, 7, 10 ) ;
#161 = CC_DESIGN_DATE_AND_TIME_ASSIGNMENT ( #95, #78, ( #59 ) ) ;
#162 = APPROVAL_DATE_TIME ( #24, #120 ) ;
#163 = ORGANIZATION ( 'UNSPECIFIED', 'UNSPECIFIED', '' ) ;
#164 = FACE_OUTER_BOUND ( 'NONE', #145, .T. ) ;
#165 = DIRECTION ( 'NONE',  ( -3.491481338843133355E-15, 1.224646799147353207E-16, -1.000000000000000000 ) ) ;
#166 = DIRECTION ( 'NONE',  ( -3.491481338843133355E-15, 1.224646799147353207E-16, -1.000000000000000000 ) ) ;
#167 = CARTESIAN_POINT ( 'NONE',  ( 1.038457351097334313E-15, 0.4949999999999974976, 0.2974260064186441954 ) ) ;
#168 = FACE_OUTER_BOUND ( 'NONE', #111, .T. ) ;
#169 = APPROVAL_ROLE ( '' ) ;
#170 = ADVANCED_BREP_SHAPE_REPRESENTATION ( '36998', ( #50, #131, #65 ), #219 ) ;
#171 = CLOSED_SHELL ( 'NONE', ( #113, #64, #14 ) ) ;
#172 = EDGE_CURVE ( 'NONE', #31, #31, #80, .T. ) ;
#173 = APPROVAL_STATUS ( 'not_yet_approved' ) ;
#174 = CC_DESIGN_PERSON_AND_ORGANIZATION_ASSIGNMENT ( #140, #90, ( #93 ) ) ;
#175 = PLANE ( 'NONE',  #214 ) ;
#176 = ORIENTED_EDGE ( 'NONE', *, *, #41, .T. ) ;
#177 = DIRECTION ( 'NONE',  ( 0.0000000000000000000, 1.000000000000000000, 0.0000000000000000000 ) ) ;
#178 = CONICAL_SURFACE ( 'NONE', #118, 0.4949999999999974976, 1.029744258676649649 ) ;
#179 = DIRECTION ( 'NONE',  ( 3.491481338843133355E-15, -1.224646799147353207E-16, 1.000000000000000000 ) ) ;
#180 = DIRECTION ( 'NONE',  ( 0.0000000000000000000, 1.000000000000000000, 0.0000000000000000000 ) ) ;
#181 = DIRECTION ( 'NONE',  ( 0.0000000000000000000, 1.000000000000000000, 0.0000000000000000000 ) ) ;
#182 = CARTESIAN_POINT ( 'NONE',  ( 2.793185071074506684E-14, 0.4949999999999971645, 8.000000000000000000 ) ) ;
#183 = DIRECTION ( 'NONE',  ( 0.0000000000000000000, 0.0000000000000000000, 1.000000000000000000 ) ) ;
#184 =( NAMED_UNIT ( * ) SI_UNIT ( $, .STERADIAN. ) SOLID_ANGLE_UNIT ( ) );
#185 = UNCERTAINTY_MEASURE_WITH_UNIT (LENGTH_MEASURE( 1.000000000000000082E-05 ), #119, 'distance_accuracy_value', 'NONE');
#186 = APPLICATION_CONTEXT ( 'configuration controlled 3d designs of mechanical parts and assemblies' ) ;
#187 = CARTESIAN_POINT ( 'NONE',  ( 1.040461438975253740E-13, -3.649447461459112464E-15, 29.80000000000000071 ) ) ;
#188 = ORIENTED_EDGE ( 'NONE', *, *, #216, .F. ) ;
#189 = PERSON_AND_ORGANIZATION_ROLE ( 'design_supplier' ) ;
#190 = LOCAL_TIME ( 15, 47, 4.000000000000000000, #18 ) ;
#191 = LOCAL_TIME ( 15, 47, 4.000000000000000000, #112 ) ;
#192 = ORIENTED_EDGE ( 'NONE', *, *, #19, .T. ) ;
#193 = CALENDAR_DATE ( 2021, 7, 10 ) ;
#194 = FACE_BOUND ( 'NONE', #81, .T. ) ;
#195 = FACE_OUTER_BOUND ( 'NONE', #54, .T. ) ;
#196 = VERTEX_POINT ( 'NONE', #182 ) ;
#197 = DESIGN_CONTEXT ( 'detailed design', #186, 'design' ) ;
#198 = CARTESIAN_POINT ( 'NONE',  ( 1.047444401652940007E-13, -3.673940397442059178E-15, 30.00000000000000000 ) ) ;
#199 = ADVANCED_FACE ( 'NONE', ( #100, #44 ), #71, .T. ) ;
#200 = DIRECTION ( 'NONE',  ( 3.890767564418677787E-31, 1.000000000000000000, 1.095153709581323098E-16 ) ) ;
#201 = AXIS2_PLACEMENT_3D ( 'NONE', #117, #62, #177 ) ;
#202 = CC_DESIGN_SECURITY_CLASSIFICATION ( #59, ( #49 ) ) ;
#203 =( NAMED_UNIT ( * ) PLANE_ANGLE_UNIT ( ) SI_UNIT ( $, .RADIAN. ) );
#204 = DATE_AND_TIME ( #139, #152 ) ;
#205 = PERSON_AND_ORGANIZATION ( #135, #163 ) ;
#206 = EDGE_CURVE ( 'NONE', #87, #87, #94, .T. ) ;
#207 = AXIS2_PLACEMENT_3D ( 'NONE', #47, #6, #63 ) ;
#208 = ORIENTED_EDGE ( 'NONE', *, *, #156, .F. ) ;
#209 = AXIS2_PLACEMENT_3D ( 'NONE', #217, #116, #29 ) ;
#210 = LOCAL_TIME ( 15, 47, 4.000000000000000000, #212 ) ;
#211 = ORIENTED_EDGE ( 'NONE', *, *, #41, .F. ) ;
#212 = COORDINATED_UNIVERSAL_TIME_OFFSET ( 1, 0, .AHEAD. ) ;
#213 = APPROVAL_STATUS ( 'not_yet_approved' ) ;
#214 = AXIS2_PLACEMENT_3D ( 'NONE', #23, #36, #4 ) ;
#215 = CARTESIAN_POINT ( 'NONE',  ( 2.793185071074506684E-14, 3.711905462088068568E-33, 8.000000000000000000 ) ) ;
#216 = EDGE_CURVE ( 'NONE', #155, #155, #2, .T. ) ;
#217 = CARTESIAN_POINT ( 'NONE',  ( 0.0000000000000000000, 0.0000000000000000000, 0.0000000000000000000 ) ) ;
#218 = DIRECTION ( 'NONE',  ( -3.491481338843133355E-15, 1.224646799147353207E-16, -1.000000000000000000 ) ) ;
#219 =( GEOMETRIC_REPRESENTATION_CONTEXT ( 3 ) GLOBAL_UNCERTAINTY_ASSIGNED_CONTEXT ( ( #185 ) ) GLOBAL_UNIT_ASSIGNED_CONTEXT ( ( #119, #203, #184 ) ) REPRESENTATION_CONTEXT ( 'NONE', 'WORKASPACE' ) );
#220 = DIRECTION ( 'NONE',  ( -3.491481338843133355E-15, 1.224646799147353207E-16, -1.000000000000000000 ) ) ;
#221 = CYLINDRICAL_SURFACE ( 'NONE', #207, 0.4949999999999978306 ) ;
#222 = PERSON_AND_ORGANIZATION ( #135, #163 ) ;
#223 = APPLICATION_PROTOCOL_DEFINITION ( 'international standard', 'config_control_design', 1994, #186 ) ;
ENDSEC;
END-ISO-10303-21;
