ISO-10303-21;
HEADER;
FILE_DESCRIPTION (( 'STEP AP203' ),
    '1' );
FILE_NAME ('36997.step',
    '2021-10-07T13:47:04',
    ( '' ),
    ( '' ),
    'SwSTEP 2.0',
    'SolidWorks 2019',
    '' );
FILE_SCHEMA (( 'CONFIG_CONTROL_DESIGN' ));
ENDSEC;

DATA;
#1 = FACE_OUTER_BOUND ( 'NONE', #92, .T. ) ;
#2 = CARTESIAN_POINT ( 'NONE',  ( 1.047444401652940007E-13, -3.673940397442059178E-15, 30.00000000000000000 ) ) ;
#3 = DIRECTION ( 'NONE',  ( 0.0000000000000000000, 1.000000000000000000, 0.0000000000000000000 ) ) ;
#4 = PRODUCT_RELATED_PRODUCT_CATEGORY ( 'detail', '', ( #75 ) ) ;
#5 = CLOSED_SHELL ( 'NONE', ( #203, #105, #129, #149, #189 ) ) ;
#6 = COORDINATED_UNIVERSAL_TIME_OFFSET ( 1, 0, .AHEAD. ) ;
#7 = APPROVAL_ROLE ( '' ) ;
#8 = AXIS2_PLACEMENT_3D ( 'NONE', #139, #116, #52 ) ;
#9 = EDGE_CURVE ( 'NONE', #34, #34, #17, .T. ) ;
#10 = ORIENTED_EDGE ( 'NONE', *, *, #9, .T. ) ;
#11 = ORIENTED_EDGE ( 'NONE', *, *, #39, .F. ) ;
#12 = DIRECTION ( 'NONE',  ( -3.491481338843133355E-15, 1.224646799147353207E-16, -1.000000000000000000 ) ) ;
#13 = LOCAL_TIME ( 15, 47, 4.000000000000000000, #103 ) ;
#14 = CARTESIAN_POINT ( 'NONE',  ( 2.793185071074506684E-14, 3.674411467521530749E-33, 8.000000000000000000 ) ) ;
#15 = FACE_OUTER_BOUND ( 'NONE', #28, .T. ) ;
#16 = DIRECTION ( 'NONE',  ( 3.491481338843133355E-15, -1.224646799147353207E-16, 1.000000000000000000 ) ) ;
#17 = CIRCLE ( 'NONE', #172, 0.4899999999999974931 ) ;
#18 = AXIS2_PLACEMENT_3D ( 'NONE', #71, #67, #140 ) ;
#19 = DIRECTION ( 'NONE',  ( 0.0000000000000000000, 1.000000000000000000, 0.0000000000000000000 ) ) ;
#20 = APPROVAL ( #24, 'UNSPECIFIED' ) ;
#21 = DATE_TIME_ROLE ( 'creation_date' ) ;
#22 = PERSON_AND_ORGANIZATION ( #161, #90 ) ;
#23 = LOCAL_TIME ( 15, 47, 4.000000000000000000, #163 ) ;
#24 = APPROVAL_STATUS ( 'not_yet_approved' ) ;
#25 = APPROVAL_PERSON_ORGANIZATION ( #22, #176, #44 ) ;
#26 = UNCERTAINTY_MEASURE_WITH_UNIT (LENGTH_MEASURE( 1.000000000000000082E-05 ), #124, 'distance_accuracy_value', 'NONE');
#27 = EDGE_LOOP ( 'NONE', ( #61 ) ) ;
#28 = EDGE_LOOP ( 'NONE', ( #181 ) ) ;
#29 = CC_DESIGN_PERSON_AND_ORGANIZATION_ASSIGNMENT ( #53, #88, ( #209 ) ) ;
#30 = DIRECTION ( 'NONE',  ( 0.0000000000000000000, 1.000000000000000000, 0.0000000000000000000 ) ) ;
#31 = DIRECTION ( 'NONE',  ( -3.491481338843133355E-15, 1.224646799147353207E-16, -1.000000000000000000 ) ) ;
#32 = AXIS2_PLACEMENT_3D ( 'NONE', #207, #31, #19 ) ;
#33 = CC_DESIGN_DATE_AND_TIME_ASSIGNMENT ( #192, #21, ( #65 ) ) ;
#34 = VERTEX_POINT ( 'NONE', #190 ) ;
#35 = DIRECTION ( 'NONE',  ( 0.0000000000000000000, 1.000000000000000000, 0.0000000000000000000 ) ) ;
#36 = VERTEX_POINT ( 'NONE', #98 ) ;
#37 = CIRCLE ( 'NONE', #119, 0.7500000000000000000 ) ;
#38 = VERTEX_POINT ( 'NONE', #40 ) ;
#39 = EDGE_CURVE ( 'NONE', #168, #168, #37, .T. ) ;
#40 = CARTESIAN_POINT ( 'NONE',  ( 1.047444401652940007E-13, 0.5499999999999964917, 30.00000000000000000 ) ) ;
#41 = APPLICATION_CONTEXT ( 'configuration controlled 3d designs of mechanical parts and assemblies' ) ;
#42 = PERSON_AND_ORGANIZATION_ROLE ( 'classification_officer' ) ;
#43 = PERSON_AND_ORGANIZATION ( #161, #90 ) ;
#44 = APPROVAL_ROLE ( '' ) ;
#45 = APPROVAL_DATE_TIME ( #77, #176 ) ;
#46 = AXIS2_PLACEMENT_3D ( 'NONE', #173, #79, #185 ) ;
#47 = EDGE_LOOP ( 'NONE', ( #11 ) ) ;
#48 = ORIENTED_EDGE ( 'NONE', *, *, #86, .T. ) ;
#49 = CARTESIAN_POINT ( 'NONE',  ( 2.793185071074506684E-14, -9.797174393178825657E-16, 8.000000000000000000 ) ) ;
#50 = DIRECTION ( 'NONE',  ( 0.0000000000000000000, 1.000000000000000000, 0.0000000000000000000 ) ) ;
#51 = CARTESIAN_POINT ( 'NONE',  ( 2.793185071074506684E-14, 3.674411467521530749E-33, 8.000000000000000000 ) ) ;
#52 = DIRECTION ( 'NONE',  ( 0.0000000000000000000, -1.000000000000000000, 0.0000000000000000000 ) ) ;
#53 = PERSON_AND_ORGANIZATION ( #161, #90 ) ;
#54 = CIRCLE ( 'NONE', #72, 0.7499999999999974465 ) ;
#55 = DATE_AND_TIME ( #212, #13 ) ;
#56 = CALENDAR_DATE ( 2021, 7, 10 ) ;
#57 = AXIS2_PLACEMENT_3D ( 'NONE', #2, #97, #35 ) ;
#58 = DATE_AND_TIME ( #146, #80 ) ;
#59 = ORIENTED_EDGE ( 'NONE', *, *, #94, .F. ) ;
#60 = CC_DESIGN_DATE_AND_TIME_ASSIGNMENT ( #58, #177, ( #115 ) ) ;
#61 = ORIENTED_EDGE ( 'NONE', *, *, #200, .T. ) ;
#62 = DIRECTION ( 'NONE',  ( 4.275831445896958607E-31, 1.000000000000000000, 1.224646799147353207E-16 ) ) ;
#63 = FACE_OUTER_BOUND ( 'NONE', #165, .T. ) ;
#64 = CARTESIAN_POINT ( 'NONE',  ( 2.793185071074506684E-14, 0.4899999999999982703, 8.000000000000000000 ) ) ;
#65 = PRODUCT_DEFINITION ( 'UNKNOWN', '', #209, #130 ) ;
#66 = DIRECTION ( 'NONE',  ( -3.491481338843133355E-15, 1.224646799147353207E-16, -1.000000000000000000 ) ) ;
#67 = DIRECTION ( 'NONE',  ( 0.0000000000000000000, 0.0000000000000000000, 1.000000000000000000 ) ) ;
#68 = CC_DESIGN_APPROVAL ( #176, ( #115 ) ) ;
#69 = PERSON_AND_ORGANIZATION ( #161, #90 ) ;
#70 = APPLICATION_PROTOCOL_DEFINITION ( 'international standard', 'config_control_design', 1994, #162 ) ;
#71 = CARTESIAN_POINT ( 'NONE',  ( 0.0000000000000000000, 0.0000000000000000000, 0.0000000000000000000 ) ) ;
#72 = AXIS2_PLACEMENT_3D ( 'NONE', #170, #136, #50 ) ;
#73 = CIRCLE ( 'NONE', #157, 0.4899999999999992140 ) ;
#74 = SECURITY_CLASSIFICATION_LEVEL ( 'unclassified' ) ;
#75 = PRODUCT ( '36997', '36997', '', ( #211 ) ) ;
#76 = EDGE_LOOP ( 'NONE', ( #182 ) ) ;
#77 = DATE_AND_TIME ( #150, #147 ) ;
#78 = CARTESIAN_POINT ( 'NONE',  ( 1.040461438975253740E-13, -3.649447461459112464E-15, 29.80000000000000071 ) ) ;
#79 = DIRECTION ( 'NONE',  ( -3.491481338843133355E-15, 1.224646799147353207E-16, -1.000000000000000000 ) ) ;
#80 = LOCAL_TIME ( 15, 47, 4.000000000000000000, #6 ) ;
#81 = CARTESIAN_POINT ( 'NONE',  ( 1.047444401652940007E-13, 4.124339402320053683E-33, 30.00000000000000000 ) ) ;
#82 = FACE_OUTER_BOUND ( 'NONE', #179, .T. ) ;
#83 = FACE_OUTER_BOUND ( 'NONE', #128, .T. ) ;
#84 = CARTESIAN_POINT ( 'NONE',  ( 1.040461438975253740E-13, 0.7499999999999963363, 29.80000000000000071 ) ) ;
#85 = PERSON_AND_ORGANIZATION ( #161, #90 ) ;
#86 = EDGE_CURVE ( 'NONE', #96, #96, #180, .T. ) ;
#87 = APPROVAL_ROLE ( '' ) ;
#88 = PERSON_AND_ORGANIZATION_ROLE ( 'creator' ) ;
#89 = APPROVAL_DATE_TIME ( #101, #20 ) ;
#90 = ORGANIZATION ( 'UNSPECIFIED', 'UNSPECIFIED', '' ) ;
#91 = EDGE_LOOP ( 'NONE', ( #131 ) ) ;
#92 = EDGE_LOOP ( 'NONE', ( #10 ) ) ;
#93 = CARTESIAN_POINT ( 'NONE',  ( 0.0000000000000000000, 0.0000000000000000000, 0.0000000000000000000 ) ) ;
#94 = EDGE_CURVE ( 'NONE', #138, #138, #54, .T. ) ;
#95 = FACE_OUTER_BOUND ( 'NONE', #27, .T. ) ;
#96 = VERTEX_POINT ( 'NONE', #64 ) ;
#97 = DIRECTION ( 'NONE',  ( -3.491481338843133355E-15, 1.224646799147353207E-16, -1.000000000000000000 ) ) ;
#98 = CARTESIAN_POINT ( 'NONE',  ( 2.793185071074506684E-14, 0.4899999999999982703, 8.000000000000000000 ) ) ;
#99 = CONICAL_SURFACE ( 'NONE', #8, 0.7499999999999974465, 0.5235987755982906000 ) ;
#100 = AXIS2_PLACEMENT_3D ( 'NONE', #93, #156, #154 ) ;
#101 = DATE_AND_TIME ( #143, #196 ) ;
#102 =( GEOMETRIC_REPRESENTATION_CONTEXT ( 3 ) GLOBAL_UNCERTAINTY_ASSIGNED_CONTEXT ( ( #26 ) ) GLOBAL_UNIT_ASSIGNED_CONTEXT ( ( #124, #159, #175 ) ) REPRESENTATION_CONTEXT ( 'NONE', 'WORKASPACE' ) );
#103 = COORDINATED_UNIVERSAL_TIME_OFFSET ( 1, 0, .AHEAD. ) ;
#104 = PRODUCT_DEFINITION_SHAPE ( 'NONE', 'NONE',  #65 ) ;
#105 = ADVANCED_FACE ( 'NONE', ( #205, #15 ), #99, .T. ) ;
#106 = PERSON_AND_ORGANIZATION ( #161, #90 ) ;
#107 = CC_DESIGN_SECURITY_CLASSIFICATION ( #115, ( #209 ) ) ;
#108 = EDGE_LOOP ( 'NONE', ( #201 ) ) ;
#109 = CLOSED_SHELL ( 'NONE', ( #198, #221, #125 ) ) ;
#110 = CIRCLE ( 'NONE', #57, 0.5500000000000001554 ) ;
#111 = CARTESIAN_POINT ( 'NONE',  ( 1.027967882904431635E-15, -3.605625965746436991E-17, 0.2944217033235063119 ) ) ;
#112 = DIRECTION ( 'NONE',  ( -4.275831445896958607E-31, -1.000000000000000000, -1.224646799147353207E-16 ) ) ;
#113 = PLANE ( 'NONE',  #152 ) ;
#114 = CARTESIAN_POINT ( 'NONE',  ( 1.027967882904431635E-15, -3.605625965746436991E-17, 0.2944217033235063119 ) ) ;
#115 = SECURITY_CLASSIFICATION ( '', '', #74 ) ;
#116 = DIRECTION ( 'NONE',  ( 3.491481338843133355E-15, -1.224646799147353207E-16, 1.000000000000000000 ) ) ;
#117 = ADVANCED_BREP_SHAPE_REPRESENTATION ( '36997', ( #199, #126, #18 ), #102 ) ;
#118 = CARTESIAN_POINT ( 'NONE',  ( 2.950418070960936909E-14, 0.7499999999999963363, 8.450333209967913817 ) ) ;
#119 = AXIS2_PLACEMENT_3D ( 'NONE', #78, #151, #218 ) ;
#120 = CC_DESIGN_APPROVAL ( #20, ( #65 ) ) ;
#121 = PERSON_AND_ORGANIZATION ( #161, #90 ) ;
#122 = CC_DESIGN_PERSON_AND_ORGANIZATION_ASSIGNMENT ( #106, #193, ( #209 ) ) ;
#123 = APPROVAL_DATE_TIME ( #55, #214 ) ;
#124 =( LENGTH_UNIT ( ) NAMED_UNIT ( * ) SI_UNIT ( .MILLI., .METRE. ) );
#125 = ADVANCED_FACE ( 'NONE', ( #208 ), #134, .T. ) ;
#126 = MANIFOLD_SOLID_BREP ( 'Corps-Déplacer/Copier1[2]', #109 ) ;
#127 = AXIS2_PLACEMENT_3D ( 'NONE', #81, #188, #62 ) ;
#128 = EDGE_LOOP ( 'NONE', ( #183 ) ) ;
#129 = ADVANCED_FACE ( 'NONE', ( #135, #82 ), #223, .T. ) ;
#130 = DESIGN_CONTEXT ( 'detailed design', #162, 'design' ) ;
#131 = ORIENTED_EDGE ( 'NONE', *, *, #86, .F. ) ;
#132 = ORIENTED_EDGE ( 'NONE', *, *, #213, .F. ) ;
#133 = AXIS2_PLACEMENT_3D ( 'NONE', #51, #16, #112 ) ;
#134 = PLANE ( 'NONE',  #133 ) ;
#135 = FACE_OUTER_BOUND ( 'NONE', #202, .T. ) ;
#136 = DIRECTION ( 'NONE',  ( -3.491481338843133355E-15, 1.224646799147353207E-16, -1.000000000000000000 ) ) ;
#137 = APPROVAL_PERSON_ORGANIZATION ( #43, #214, #7 ) ;
#138 = VERTEX_POINT ( 'NONE', #118 ) ;
#139 = CARTESIAN_POINT ( 'NONE',  ( 2.950418070960936909E-14, -1.034867351731578357E-15, 8.450333209967913817 ) ) ;
#140 = DIRECTION ( 'NONE',  ( 1.000000000000000000, 0.0000000000000000000, 0.0000000000000000000 ) ) ;
#141 = CONICAL_SURFACE ( 'NONE', #32, 0.5500000000000001554, 0.7853981633974510546 ) ;
#142 = CONICAL_SURFACE ( 'NONE', #220, 0.4899999999999974931, 1.029744258676649649 ) ;
#143 = CALENDAR_DATE ( 2021, 7, 10 ) ;
#144 = COORDINATED_UNIVERSAL_TIME_OFFSET ( 1, 0, .AHEAD. ) ;
#145 = CC_DESIGN_PERSON_AND_ORGANIZATION_ASSIGNMENT ( #160, #42, ( #115 ) ) ;
#146 = CALENDAR_DATE ( 2021, 7, 10 ) ;
#147 = LOCAL_TIME ( 15, 47, 4.000000000000000000, #148 ) ;
#148 = COORDINATED_UNIVERSAL_TIME_OFFSET ( 1, 0, .AHEAD. ) ;
#149 = ADVANCED_FACE ( 'NONE', ( #153, #204 ), #141, .T. ) ;
#150 = CALENDAR_DATE ( 2021, 7, 10 ) ;
#151 = DIRECTION ( 'NONE',  ( -3.491481338843133355E-15, 1.224646799147353207E-16, -1.000000000000000000 ) ) ;
#152 = AXIS2_PLACEMENT_3D ( 'NONE', #14, #187, #186 ) ;
#153 = FACE_OUTER_BOUND ( 'NONE', #47, .T. ) ;
#154 = DIRECTION ( 'NONE',  ( 4.275831445896957731E-31, 1.000000000000000000, 1.224646799147352961E-16 ) ) ;
#155 = DIRECTION ( 'NONE',  ( -3.930469274259685230E-31, -1.000000000000000000, -1.106328747434193891E-16 ) ) ;
#156 = DIRECTION ( 'NONE',  ( -3.491481338843133355E-15, 1.224646799147353207E-16, -1.000000000000000000 ) ) ;
#157 = AXIS2_PLACEMENT_3D ( 'NONE', #49, #12, #30 ) ;
#158 = DIRECTION ( 'NONE',  ( 3.491481338843133355E-15, -1.224646799147353207E-16, 1.000000000000000000 ) ) ;
#159 =( NAMED_UNIT ( * ) PLANE_ANGLE_UNIT ( ) SI_UNIT ( $, .RADIAN. ) );
#160 = PERSON_AND_ORGANIZATION ( #161, #90 ) ;
#161 = PERSON ( 'UNSPECIFIED', 'UNSPECIFIED', 'UNSPECIFIED', ('UNSPECIFIED'), ('UNSPECIFIED'), ('UNSPECIFIED') ) ;
#162 = APPLICATION_CONTEXT ( 'configuration controlled 3d designs of mechanical parts and assemblies' ) ;
#163 = COORDINATED_UNIVERSAL_TIME_OFFSET ( 1, 0, .AHEAD. ) ;
#164 = APPROVAL_PERSON_ORGANIZATION ( #121, #20, #87 ) ;
#165 = EDGE_LOOP ( 'NONE', ( #132 ) ) ;
#166 = EDGE_LOOP ( 'NONE', ( #48 ) ) ;
#167 = DIRECTION ( 'NONE',  ( 3.930469274259685230E-31, 1.000000000000000000, 1.106328747434193891E-16 ) ) ;
#168 = VERTEX_POINT ( 'NONE', #84 ) ;
#169 = CYLINDRICAL_SURFACE ( 'NONE', #100, 0.4899999999999983813 ) ;
#170 = CARTESIAN_POINT ( 'NONE',  ( 2.950418070960936909E-14, -1.034867351731578357E-15, 8.450333209967913817 ) ) ;
#171 = CARTESIAN_POINT ( 'NONE',  ( 2.793185071074506684E-14, -9.797174393178825657E-16, 8.000000000000000000 ) ) ;
#172 = AXIS2_PLACEMENT_3D ( 'NONE', #111, #184, #167 ) ;
#173 = CARTESIAN_POINT ( 'NONE',  ( 0.0000000000000000000, 0.0000000000000000000, 0.0000000000000000000 ) ) ;
#174 = CC_DESIGN_PERSON_AND_ORGANIZATION_ASSIGNMENT ( #85, #191, ( #75 ) ) ;
#175 =( NAMED_UNIT ( * ) SI_UNIT ( $, .STERADIAN. ) SOLID_ANGLE_UNIT ( ) );
#176 = APPROVAL ( #197, 'UNSPECIFIED' ) ;
#177 = DATE_TIME_ROLE ( 'classification_date' ) ;
#178 = APPLICATION_PROTOCOL_DEFINITION ( 'international standard', 'config_control_design', 1994, #41 ) ;
#179 = EDGE_LOOP ( 'NONE', ( #215 ) ) ;
#180 = CIRCLE ( 'NONE', #219, 0.4899999999999992140 ) ;
#181 = ORIENTED_EDGE ( 'NONE', *, *, #94, .T. ) ;
#182 = ORIENTED_EDGE ( 'NONE', *, *, #200, .F. ) ;
#183 = ORIENTED_EDGE ( 'NONE', *, *, #9, .F. ) ;
#184 = DIRECTION ( 'NONE',  ( -3.491481338843133355E-15, 1.224646799147353207E-16, -1.000000000000000000 ) ) ;
#185 = DIRECTION ( 'NONE',  ( 4.275831445896959482E-31, 1.000000000000000000, 1.224646799147353207E-16 ) ) ;
#186 = DIRECTION ( 'NONE',  ( -4.275831445896958607E-31, -1.000000000000000000, -1.224646799147353207E-16 ) ) ;
#187 = DIRECTION ( 'NONE',  ( 3.491481338843133355E-15, -1.224646799147353207E-16, 1.000000000000000000 ) ) ;
#188 = DIRECTION ( 'NONE',  ( -3.491481338843133355E-15, 1.224646799147353207E-16, -1.000000000000000000 ) ) ;
#189 = ADVANCED_FACE ( 'NONE', ( #63 ), #222, .F. ) ;
#190 = CARTESIAN_POINT ( 'NONE',  ( 1.027967882904431833E-15, 0.4899999999999974931, 0.2944217033235063674 ) ) ;
#191 = PERSON_AND_ORGANIZATION_ROLE ( 'design_owner' ) ;
#192 = DATE_AND_TIME ( #56, #23 ) ;
#193 = PERSON_AND_ORGANIZATION_ROLE ( 'design_supplier' ) ;
#194 = CC_DESIGN_PERSON_AND_ORGANIZATION_ASSIGNMENT ( #69, #195, ( #65 ) ) ;
#195 = PERSON_AND_ORGANIZATION_ROLE ( 'creator' ) ;
#196 = LOCAL_TIME ( 15, 47, 4.000000000000000000, #144 ) ;
#197 = APPROVAL_STATUS ( 'not_yet_approved' ) ;
#198 = ADVANCED_FACE ( 'NONE', ( #1 ), #142, .T. ) ;
#199 = MANIFOLD_SOLID_BREP ( 'Corps-Déplacer/Copier1[1]', #5 ) ;
#200 = EDGE_CURVE ( 'NONE', #36, #36, #73, .T. ) ;
#201 = ORIENTED_EDGE ( 'NONE', *, *, #213, .T. ) ;
#202 = EDGE_LOOP ( 'NONE', ( #59 ) ) ;
#203 = ADVANCED_FACE ( 'NONE', ( #206 ), #113, .F. ) ;
#204 = FACE_BOUND ( 'NONE', #108, .T. ) ;
#205 = FACE_BOUND ( 'NONE', #91, .T. ) ;
#206 = FACE_OUTER_BOUND ( 'NONE', #166, .T. ) ;
#207 = CARTESIAN_POINT ( 'NONE',  ( 1.047444401652940007E-13, -3.673940397442059178E-15, 30.00000000000000000 ) ) ;
#208 = FACE_OUTER_BOUND ( 'NONE', #76, .T. ) ;
#209 = PRODUCT_DEFINITION_FORMATION_WITH_SPECIFIED_SOURCE ( 'ANY', '', #75, .NOT_KNOWN. ) ;
#210 = APPROVAL_STATUS ( 'not_yet_approved' ) ;
#211 = MECHANICAL_CONTEXT ( 'NONE', #41, 'mechanical' ) ;
#212 = CALENDAR_DATE ( 2021, 7, 10 ) ;
#213 = EDGE_CURVE ( 'NONE', #38, #38, #110, .T. ) ;
#214 = APPROVAL ( #210, 'UNSPECIFIED' ) ;
#215 = ORIENTED_EDGE ( 'NONE', *, *, #39, .T. ) ;
#216 = CC_DESIGN_APPROVAL ( #214, ( #209 ) ) ;
#217 = SHAPE_DEFINITION_REPRESENTATION ( #104, #117 ) ;
#218 = DIRECTION ( 'NONE',  ( 0.0000000000000000000, 1.000000000000000000, 0.0000000000000000000 ) ) ;
#219 = AXIS2_PLACEMENT_3D ( 'NONE', #171, #66, #3 ) ;
#220 = AXIS2_PLACEMENT_3D ( 'NONE', #114, #158, #155 ) ;
#221 = ADVANCED_FACE ( 'NONE', ( #83, #95 ), #169, .T. ) ;
#222 = PLANE ( 'NONE',  #127 ) ;
#223 = CYLINDRICAL_SURFACE ( 'NONE', #46, 0.7499999999999986677 ) ;
ENDSEC;
END-ISO-10303-21;
