ISO-10303-21;
HEADER;
FILE_DESCRIPTION (( 'STEP AP203' ),
    '1' );
FILE_NAME ('36996.step',
    '2021-10-07T13:47:03',
    ( '' ),
    ( '' ),
    'SwSTEP 2.0',
    'SolidWorks 2019',
    '' );
FILE_SCHEMA (( 'CONFIG_CONTROL_DESIGN' ));
ENDSEC;

DATA;
#1 = COORDINATED_UNIVERSAL_TIME_OFFSET ( 1, 0, .AHEAD. ) ;
#2 = EDGE_CURVE ( 'NONE', #137, #137, #199, .T. ) ;
#3 = CIRCLE ( 'NONE', #114, 0.4849999999999989875 ) ;
#4 = PERSON_AND_ORGANIZATION_ROLE ( 'creator' ) ;
#5 = APPROVAL_STATUS ( 'not_yet_approved' ) ;
#6 = DIRECTION ( 'NONE',  ( 0.0000000000000000000, 0.0000000000000000000, 1.000000000000000000 ) ) ;
#7 = EDGE_LOOP ( 'NONE', ( #11 ) ) ;
#8 = CALENDAR_DATE ( 2021, 7, 10 ) ;
#9 = EDGE_CURVE ( 'NONE', #102, #102, #140, .T. ) ;
#10 = CLOSED_SHELL ( 'NONE', ( #38, #106, #193, #177, #56 ) ) ;
#11 = ORIENTED_EDGE ( 'NONE', *, *, #61, .T. ) ;
#12 = CARTESIAN_POINT ( 'NONE',  ( 1.040461438975253740E-13, 0.7499999999999963363, 29.80000000000000071 ) ) ;
#13 = AXIS2_PLACEMENT_3D ( 'NONE', #202, #184, #97 ) ;
#14 = VERTEX_POINT ( 'NONE', #151 ) ;
#15 = CC_DESIGN_DATE_AND_TIME_ASSIGNMENT ( #121, #207, ( #197 ) ) ;
#16 = FACE_OUTER_BOUND ( 'NONE', #7, .T. ) ;
#17 = CIRCLE ( 'NONE', #65, 0.4849999999999989875 ) ;
#18 = VERTEX_POINT ( 'NONE', #82 ) ;
#19 = DATE_AND_TIME ( #173, #204 ) ;
#20 = APPLICATION_CONTEXT ( 'configuration controlled 3d designs of mechanical parts and assemblies' ) ;
#21 = PERSON_AND_ORGANIZATION ( #72, #127 ) ;
#22 = PERSON_AND_ORGANIZATION ( #72, #127 ) ;
#23 = CALENDAR_DATE ( 2021, 7, 10 ) ;
#24 = DIRECTION ( 'NONE',  ( 1.000000000000000000, 0.0000000000000000000, 0.0000000000000000000 ) ) ;
#25 = ORIENTED_EDGE ( 'NONE', *, *, #216, .F. ) ;
#26 = CIRCLE ( 'NONE', #171, 0.5500000000000001554 ) ;
#27 = ORIENTED_EDGE ( 'NONE', *, *, #9, .F. ) ;
#28 = CARTESIAN_POINT ( 'NONE',  ( 2.793185071074506684E-14, 3.636917472954981983E-33, 8.000000000000000000 ) ) ;
#29 = DIRECTION ( 'NONE',  ( -3.491481338843133355E-15, 1.224646799147353207E-16, -1.000000000000000000 ) ) ;
#30 =( GEOMETRIC_REPRESENTATION_CONTEXT ( 3 ) GLOBAL_UNCERTAINTY_ASSIGNED_CONTEXT ( ( #94 ) ) GLOBAL_UNIT_ASSIGNED_CONTEXT ( ( #218, #134, #170 ) ) REPRESENTATION_CONTEXT ( 'NONE', 'WORKASPACE' ) );
#31 = FACE_OUTER_BOUND ( 'NONE', #126, .T. ) ;
#32 = DIRECTION ( 'NONE',  ( -3.491481338843133355E-15, 1.224646799147353207E-16, -1.000000000000000000 ) ) ;
#33 = CARTESIAN_POINT ( 'NONE',  ( 2.793185071074506684E-14, -9.797174393178825657E-16, 8.000000000000000000 ) ) ;
#34 = AXIS2_PLACEMENT_3D ( 'NONE', #148, #29, #125 ) ;
#35 = CC_DESIGN_PERSON_AND_ORGANIZATION_ASSIGNMENT ( #21, #54, ( #96 ) ) ;
#36 = DIRECTION ( 'NONE',  ( 3.491481338843133355E-15, -1.224646799147353207E-16, 1.000000000000000000 ) ) ;
#37 = APPROVAL_DATE_TIME ( #161, #101 ) ;
#38 = ADVANCED_FACE ( 'NONE', ( #191 ), #39, .F. ) ;
#39 = PLANE ( 'NONE',  #131 ) ;
#40 = DATE_AND_TIME ( #58, #154 ) ;
#41 = ORIENTED_EDGE ( 'NONE', *, *, #216, .T. ) ;
#42 = ADVANCED_FACE ( 'NONE', ( #180 ), #195, .T. ) ;
#43 = CLOSED_SHELL ( 'NONE', ( #201, #47, #42 ) ) ;
#44 = ORIENTED_EDGE ( 'NONE', *, *, #66, .T. ) ;
#45 = DIRECTION ( 'NONE',  ( 3.491481338843133355E-15, -1.224646799147353207E-16, 1.000000000000000000 ) ) ;
#46 = DIRECTION ( 'NONE',  ( 0.0000000000000000000, -1.000000000000000000, 0.0000000000000000000 ) ) ;
#47 = ADVANCED_FACE ( 'NONE', ( #181, #16 ), #214, .T. ) ;
#48 = CARTESIAN_POINT ( 'NONE',  ( 1.047444401652940007E-13, 4.124339402320053683E-33, 30.00000000000000000 ) ) ;
#49 = LOCAL_TIME ( 15, 47, 3.000000000000000000, #124 ) ;
#50 = FACE_BOUND ( 'NONE', #209, .T. ) ;
#51 = CARTESIAN_POINT ( 'NONE',  ( 0.0000000000000000000, 0.0000000000000000000, 0.0000000000000000000 ) ) ;
#52 = CARTESIAN_POINT ( 'NONE',  ( 2.793185071074506684E-14, 0.4849999999999980438, 8.000000000000000000 ) ) ;
#53 = CONICAL_SURFACE ( 'NONE', #165, 0.4849999999999977107, 1.029744258676649871 ) ;
#54 = PERSON_AND_ORGANIZATION_ROLE ( 'design_supplier' ) ;
#55 = SHAPE_DEFINITION_REPRESENTATION ( #111, #164 ) ;
#56 = ADVANCED_FACE ( 'NONE', ( #196 ), #63, .F. ) ;
#57 = AXIS2_PLACEMENT_3D ( 'NONE', #51, #215, #113 ) ;
#58 = CALENDAR_DATE ( 2021, 7, 10 ) ;
#59 = PERSON_AND_ORGANIZATION_ROLE ( 'classification_officer' ) ;
#60 = ORIENTED_EDGE ( 'NONE', *, *, #61, .F. ) ;
#61 = EDGE_CURVE ( 'NONE', #18, #18, #3, .T. ) ;
#62 = CARTESIAN_POINT ( 'NONE',  ( 2.793185071074506684E-14, 3.636917472954981983E-33, 8.000000000000000000 ) ) ;
#63 = PLANE ( 'NONE',  #118 ) ;
#64 = APPROVAL ( #5, 'UNSPECIFIED' ) ;
#65 = AXIS2_PLACEMENT_3D ( 'NONE', #88, #198, #136 ) ;
#66 = EDGE_CURVE ( 'NONE', #115, #115, #26, .T. ) ;
#67 = FACE_OUTER_BOUND ( 'NONE', #108, .T. ) ;
#68 = CARTESIAN_POINT ( 'NONE',  ( 0.0000000000000000000, 0.0000000000000000000, 0.0000000000000000000 ) ) ;
#69 = DIRECTION ( 'NONE',  ( 0.0000000000000000000, 1.000000000000000000, 0.0000000000000000000 ) ) ;
#70 = PERSON_AND_ORGANIZATION ( #72, #127 ) ;
#71 = MECHANICAL_CONTEXT ( 'NONE', #20, 'mechanical' ) ;
#72 = PERSON ( 'UNSPECIFIED', 'UNSPECIFIED', 'UNSPECIFIED', ('UNSPECIFIED'), ('UNSPECIFIED'), ('UNSPECIFIED') ) ;
#73 = CC_DESIGN_PERSON_AND_ORGANIZATION_ASSIGNMENT ( #157, #4, ( #96 ) ) ;
#74 = APPROVAL_ROLE ( '' ) ;
#75 = APPROVAL_STATUS ( 'not_yet_approved' ) ;
#76 = EDGE_LOOP ( 'NONE', ( #80 ) ) ;
#77 = AXIS2_PLACEMENT_3D ( 'NONE', #185, #36, #46 ) ;
#78 = EDGE_LOOP ( 'NONE', ( #27 ) ) ;
#79 = EDGE_LOOP ( 'NONE', ( #211 ) ) ;
#80 = ORIENTED_EDGE ( 'NONE', *, *, #66, .F. ) ;
#81 = CARTESIAN_POINT ( 'NONE',  ( 1.047444401652940007E-13, -3.673940397442059178E-15, 30.00000000000000000 ) ) ;
#82 = CARTESIAN_POINT ( 'NONE',  ( 2.793185071074506684E-14, 0.4849999999999980438, 8.000000000000000000 ) ) ;
#83 = APPROVAL_PERSON_ORGANIZATION ( #139, #101, #203 ) ;
#84 = AXIS2_PLACEMENT_3D ( 'NONE', #192, #6, #24 ) ;
#85 = MANIFOLD_SOLID_BREP ( 'Corps-Déplacer/Copier1[2]', #43 ) ;
#86 = DIRECTION ( 'NONE',  ( 4.275831445896958607E-31, 1.000000000000000000, 1.224646799147353454E-16 ) ) ;
#87 = LOCAL_TIME ( 15, 47, 3.000000000000000000, #93 ) ;
#88 = CARTESIAN_POINT ( 'NONE',  ( 2.793185071074506684E-14, -9.797174393178825657E-16, 8.000000000000000000 ) ) ;
#89 = DATE_AND_TIME ( #141, #49 ) ;
#90 = MANIFOLD_SOLID_BREP ( 'Corps-Déplacer/Copier1[1]', #10 ) ;
#91 = PERSON_AND_ORGANIZATION_ROLE ( 'creator' ) ;
#92 = CC_DESIGN_SECURITY_CLASSIFICATION ( #219, ( #96 ) ) ;
#93 = COORDINATED_UNIVERSAL_TIME_OFFSET ( 1, 0, .AHEAD. ) ;
#94 = UNCERTAINTY_MEASURE_WITH_UNIT (LENGTH_MEASURE( 1.000000000000000082E-05 ), #218, 'distance_accuracy_value', 'NONE');
#95 = APPROVAL_STATUS ( 'not_yet_approved' ) ;
#96 = PRODUCT_DEFINITION_FORMATION_WITH_SPECIFIED_SOURCE ( 'ANY', '', #150, .NOT_KNOWN. ) ;
#97 = DIRECTION ( 'NONE',  ( 0.0000000000000000000, 1.000000000000000000, 0.0000000000000000000 ) ) ;
#98 = PRODUCT_RELATED_PRODUCT_CATEGORY ( 'detail', '', ( #150 ) ) ;
#99 = AXIS2_PLACEMENT_3D ( 'NONE', #172, #110, #69 ) ;
#100 = CARTESIAN_POINT ( 'NONE',  ( 1.017478414711529550E-15, 0.4849999999999976552, 0.2914174002283685394 ) ) ;
#101 = APPROVAL ( #95, 'UNSPECIFIED' ) ;
#102 = VERTEX_POINT ( 'NONE', #100 ) ;
#103 = FACE_OUTER_BOUND ( 'NONE', #107, .T. ) ;
#104 = COORDINATED_UNIVERSAL_TIME_OFFSET ( 1, 0, .AHEAD. ) ;
#105 = APPLICATION_PROTOCOL_DEFINITION ( 'international standard', 'config_control_design', 1994, #20 ) ;
#106 = ADVANCED_FACE ( 'NONE', ( #221, #67 ), #152, .T. ) ;
#107 = EDGE_LOOP ( 'NONE', ( #160 ) ) ;
#108 = EDGE_LOOP ( 'NONE', ( #41 ) ) ;
#109 = DIRECTION ( 'NONE',  ( -4.275831445896958607E-31, -1.000000000000000000, -1.224646799147353207E-16 ) ) ;
#110 = DIRECTION ( 'NONE',  ( -3.491481338843133355E-15, 1.224646799147353207E-16, -1.000000000000000000 ) ) ;
#111 = PRODUCT_DEFINITION_SHAPE ( 'NONE', 'NONE',  #197 ) ;
#112 = APPROVAL_PERSON_ORGANIZATION ( #120, #64, #74 ) ;
#113 = DIRECTION ( 'NONE',  ( 4.275831445896959482E-31, 1.000000000000000000, 1.224646799147353207E-16 ) ) ;
#114 = AXIS2_PLACEMENT_3D ( 'NONE', #33, #32, #187 ) ;
#115 = VERTEX_POINT ( 'NONE', #222 ) ;
#116 = CARTESIAN_POINT ( 'NONE',  ( 1.017478414711529352E-15, -3.568833864055146334E-17, 0.2914174002283684839 ) ) ;
#117 = DIRECTION ( 'NONE',  ( -3.491481338843133355E-15, 1.224646799147353207E-16, -1.000000000000000000 ) ) ;
#118 = AXIS2_PLACEMENT_3D ( 'NONE', #48, #166, #153 ) ;
#119 = PERSON_AND_ORGANIZATION_ROLE ( 'design_owner' ) ;
#120 = PERSON_AND_ORGANIZATION ( #72, #127 ) ;
#121 = DATE_AND_TIME ( #23, #179 ) ;
#122 = EDGE_LOOP ( 'NONE', ( #147 ) ) ;
#123 = CONICAL_SURFACE ( 'NONE', #99, 0.5500000000000001554, 0.7853981633974510546 ) ;
#124 = COORDINATED_UNIVERSAL_TIME_OFFSET ( 1, 0, .AHEAD. ) ;
#125 = DIRECTION ( 'NONE',  ( 3.970989576056175133E-31, 1.000000000000000000, 1.117734198438669638E-16 ) ) ;
#126 = EDGE_LOOP ( 'NONE', ( #145 ) ) ;
#127 = ORGANIZATION ( 'UNSPECIFIED', 'UNSPECIFIED', '' ) ;
#128 = CC_DESIGN_PERSON_AND_ORGANIZATION_ASSIGNMENT ( #70, #91, ( #197 ) ) ;
#129 = EDGE_LOOP ( 'NONE', ( #60 ) ) ;
#130 = DIRECTION ( 'NONE',  ( 0.0000000000000000000, 1.000000000000000000, 0.0000000000000000000 ) ) ;
#131 = AXIS2_PLACEMENT_3D ( 'NONE', #62, #212, #194 ) ;
#132 = EDGE_CURVE ( 'NONE', #168, #168, #17, .T. ) ;
#133 = FACE_OUTER_BOUND ( 'NONE', #142, .T. ) ;
#134 =( NAMED_UNIT ( * ) PLANE_ANGLE_UNIT ( ) SI_UNIT ( $, .RADIAN. ) );
#135 = AXIS2_PLACEMENT_3D ( 'NONE', #178, #213, #176 ) ;
#136 = DIRECTION ( 'NONE',  ( 0.0000000000000000000, 1.000000000000000000, 0.0000000000000000000 ) ) ;
#137 = VERTEX_POINT ( 'NONE', #12 ) ;
#138 = CC_DESIGN_DATE_AND_TIME_ASSIGNMENT ( #40, #159, ( #219 ) ) ;
#139 = PERSON_AND_ORGANIZATION ( #72, #127 ) ;
#140 = CIRCLE ( 'NONE', #34, 0.4849999999999977107 ) ;
#141 = CALENDAR_DATE ( 2021, 7, 10 ) ;
#142 = EDGE_LOOP ( 'NONE', ( #25 ) ) ;
#143 = APPLICATION_PROTOCOL_DEFINITION ( 'international standard', 'config_control_design', 1994, #223 ) ;
#144 = CC_DESIGN_PERSON_AND_ORGANIZATION_ASSIGNMENT ( #22, #119, ( #150 ) ) ;
#145 = ORIENTED_EDGE ( 'NONE', *, *, #9, .T. ) ;
#146 = SECURITY_CLASSIFICATION_LEVEL ( 'unclassified' ) ;
#147 = ORIENTED_EDGE ( 'NONE', *, *, #2, .T. ) ;
#148 = CARTESIAN_POINT ( 'NONE',  ( 1.017478414711529352E-15, -3.568833864055146334E-17, 0.2914174002283684839 ) ) ;
#149 = CYLINDRICAL_SURFACE ( 'NONE', #57, 0.7499999999999986677 ) ;
#150 = PRODUCT ( '36996', '36996', '', ( #71 ) ) ;
#151 = CARTESIAN_POINT ( 'NONE',  ( 2.953441782497212520E-14, 0.7499999999999963363, 8.458993464005756024 ) ) ;
#152 = CONICAL_SURFACE ( 'NONE', #77, 0.7499999999999974465, 0.5235987755982937086 ) ;
#153 = DIRECTION ( 'NONE',  ( 4.275831445896958607E-31, 1.000000000000000000, 1.224646799147353207E-16 ) ) ;
#154 = LOCAL_TIME ( 15, 47, 3.000000000000000000, #104 ) ;
#155 = DIRECTION ( 'NONE',  ( 3.491481338843133355E-15, -1.224646799147353207E-16, 1.000000000000000000 ) ) ;
#156 = PERSON_AND_ORGANIZATION ( #72, #127 ) ;
#157 = PERSON_AND_ORGANIZATION ( #72, #127 ) ;
#158 = AXIS2_PLACEMENT_3D ( 'NONE', #28, #45, #109 ) ;
#159 = DATE_TIME_ROLE ( 'classification_date' ) ;
#160 = ORIENTED_EDGE ( 'NONE', *, *, #2, .F. ) ;
#161 = DATE_AND_TIME ( #8, #87 ) ;
#162 = EDGE_LOOP ( 'NONE', ( #175 ) ) ;
#163 = AXIS2_PLACEMENT_3D ( 'NONE', #68, #117, #86 ) ;
#164 = ADVANCED_BREP_SHAPE_REPRESENTATION ( '36996', ( #90, #85, #84 ), #30 ) ;
#165 = AXIS2_PLACEMENT_3D ( 'NONE', #116, #155, #186 ) ;
#166 = DIRECTION ( 'NONE',  ( -3.491481338843133355E-15, 1.224646799147353207E-16, -1.000000000000000000 ) ) ;
#167 = CC_DESIGN_PERSON_AND_ORGANIZATION_ASSIGNMENT ( #210, #59, ( #219 ) ) ;
#168 = VERTEX_POINT ( 'NONE', #52 ) ;
#169 = DESIGN_CONTEXT ( 'detailed design', #223, 'design' ) ;
#170 =( NAMED_UNIT ( * ) SI_UNIT ( $, .STERADIAN. ) SOLID_ANGLE_UNIT ( ) );
#171 = AXIS2_PLACEMENT_3D ( 'NONE', #81, #200, #130 ) ;
#172 = CARTESIAN_POINT ( 'NONE',  ( 1.047444401652940007E-13, -3.673940397442059178E-15, 30.00000000000000000 ) ) ;
#173 = CALENDAR_DATE ( 2021, 7, 10 ) ;
#174 = APPROVAL_DATE_TIME ( #19, #220 ) ;
#175 = ORIENTED_EDGE ( 'NONE', *, *, #132, .T. ) ;
#176 = DIRECTION ( 'NONE',  ( 0.0000000000000000000, 1.000000000000000000, 0.0000000000000000000 ) ) ;
#177 = ADVANCED_FACE ( 'NONE', ( #103, #50 ), #123, .T. ) ;
#178 = CARTESIAN_POINT ( 'NONE',  ( 1.040461438975253740E-13, -3.649447461459112464E-15, 29.80000000000000071 ) ) ;
#179 = LOCAL_TIME ( 15, 47, 3.000000000000000000, #205 ) ;
#180 = FACE_OUTER_BOUND ( 'NONE', #129, .T. ) ;
#181 = FACE_OUTER_BOUND ( 'NONE', #78, .T. ) ;
#182 = FACE_OUTER_BOUND ( 'NONE', #122, .T. ) ;
#183 = CC_DESIGN_APPROVAL ( #64, ( #219 ) ) ;
#184 = DIRECTION ( 'NONE',  ( -3.491481338843133355E-15, 1.224646799147353207E-16, -1.000000000000000000 ) ) ;
#185 = CARTESIAN_POINT ( 'NONE',  ( 2.953441782497212520E-14, -1.035927926970303007E-15, 8.458993464005756024 ) ) ;
#186 = DIRECTION ( 'NONE',  ( -3.970989576056175133E-31, -1.000000000000000000, -1.117734198438669638E-16 ) ) ;
#187 = DIRECTION ( 'NONE',  ( 0.0000000000000000000, 1.000000000000000000, 0.0000000000000000000 ) ) ;
#188 = CC_DESIGN_APPROVAL ( #220, ( #197 ) ) ;
#189 = APPROVAL_ROLE ( '' ) ;
#190 = CIRCLE ( 'NONE', #13, 0.7499999999999974465 ) ;
#191 = FACE_OUTER_BOUND ( 'NONE', #162, .T. ) ;
#192 = CARTESIAN_POINT ( 'NONE',  ( 0.0000000000000000000, 0.0000000000000000000, 0.0000000000000000000 ) ) ;
#193 = ADVANCED_FACE ( 'NONE', ( #133, #182 ), #149, .T. ) ;
#194 = DIRECTION ( 'NONE',  ( -4.275831445896958607E-31, -1.000000000000000000, -1.224646799147353207E-16 ) ) ;
#195 = PLANE ( 'NONE',  #158 ) ;
#196 = FACE_OUTER_BOUND ( 'NONE', #76, .T. ) ;
#197 = PRODUCT_DEFINITION ( 'UNKNOWN', '', #96, #169 ) ;
#198 = DIRECTION ( 'NONE',  ( -3.491481338843133355E-15, 1.224646799147353207E-16, -1.000000000000000000 ) ) ;
#199 = CIRCLE ( 'NONE', #135, 0.7500000000000000000 ) ;
#200 = DIRECTION ( 'NONE',  ( -3.491481338843133355E-15, 1.224646799147353207E-16, -1.000000000000000000 ) ) ;
#201 = ADVANCED_FACE ( 'NONE', ( #31 ), #53, .T. ) ;
#202 = CARTESIAN_POINT ( 'NONE',  ( 2.953441782497212520E-14, -1.035927926970303007E-15, 8.458993464005756024 ) ) ;
#203 = APPROVAL_ROLE ( '' ) ;
#204 = LOCAL_TIME ( 15, 47, 3.000000000000000000, #1 ) ;
#205 = COORDINATED_UNIVERSAL_TIME_OFFSET ( 1, 0, .AHEAD. ) ;
#206 = APPROVAL_DATE_TIME ( #89, #64 ) ;
#207 = DATE_TIME_ROLE ( 'creation_date' ) ;
#208 = CC_DESIGN_APPROVAL ( #101, ( #96 ) ) ;
#209 = EDGE_LOOP ( 'NONE', ( #44 ) ) ;
#210 = PERSON_AND_ORGANIZATION ( #72, #127 ) ;
#211 = ORIENTED_EDGE ( 'NONE', *, *, #132, .F. ) ;
#212 = DIRECTION ( 'NONE',  ( 3.491481338843133355E-15, -1.224646799147353207E-16, 1.000000000000000000 ) ) ;
#213 = DIRECTION ( 'NONE',  ( -3.491481338843133355E-15, 1.224646799147353207E-16, -1.000000000000000000 ) ) ;
#214 = CYLINDRICAL_SURFACE ( 'NONE', #163, 0.4849999999999983213 ) ;
#215 = DIRECTION ( 'NONE',  ( -3.491481338843133355E-15, 1.224646799147353207E-16, -1.000000000000000000 ) ) ;
#216 = EDGE_CURVE ( 'NONE', #14, #14, #190, .T. ) ;
#217 = APPROVAL_PERSON_ORGANIZATION ( #156, #220, #189 ) ;
#218 =( LENGTH_UNIT ( ) NAMED_UNIT ( * ) SI_UNIT ( .MILLI., .METRE. ) );
#219 = SECURITY_CLASSIFICATION ( '', '', #146 ) ;
#220 = APPROVAL ( #75, 'UNSPECIFIED' ) ;
#221 = FACE_BOUND ( 'NONE', #79, .T. ) ;
#222 = CARTESIAN_POINT ( 'NONE',  ( 1.047444401652940007E-13, 0.5499999999999964917, 30.00000000000000000 ) ) ;
#223 = APPLICATION_CONTEXT ( 'configuration controlled 3d designs of mechanical parts and assemblies' ) ;
ENDSEC;
END-ISO-10303-21;
