ISO-10303-21;
HEADER;
FILE_DESCRIPTION (( 'STEP AP203' ),
    '1' );
FILE_NAME ('36989.step',
    '2021-10-07T13:47:02',
    ( '' ),
    ( '' ),
    'SwSTEP 2.0',
    'SolidWorks 2019',
    '' );
FILE_SCHEMA (( 'CONFIG_CONTROL_DESIGN' ));
ENDSEC;

DATA;
#1 = EDGE_LOOP ( 'NONE', ( #170 ) ) ;
#2 =( NAMED_UNIT ( * ) PLANE_ANGLE_UNIT ( ) SI_UNIT ( $, .RADIAN. ) );
#3 = EDGE_LOOP ( 'NONE', ( #191 ) ) ;
#4 = PERSON_AND_ORGANIZATION ( #106, #29 ) ;
#5 = DIRECTION ( 'NONE',  ( -4.275831445896958607E-31, -1.000000000000000000, -1.224646799147353207E-16 ) ) ;
#6 = DIRECTION ( 'NONE',  ( -3.491481338843133355E-15, 1.224646799147353207E-16, -1.000000000000000000 ) ) ;
#7 = AXIS2_PLACEMENT_3D ( 'NONE', #185, #14, #218 ) ;
#8 = DIRECTION ( 'NONE',  ( -3.491481338843133355E-15, 1.224646799147353207E-16, -1.000000000000000000 ) ) ;
#9 = DIRECTION ( 'NONE',  ( 0.0000000000000000000, 1.000000000000000000, 0.0000000000000000000 ) ) ;
#10 = APPROVAL_ROLE ( '' ) ;
#11 = CARTESIAN_POINT ( 'NONE',  ( 2.478951750578624367E-14, -8.694992273946207746E-16, 7.099999999999999645 ) ) ;
#12 = PRODUCT_DEFINITION_FORMATION_WITH_SPECIFIED_SOURCE ( 'ANY', '', #23, .NOT_KNOWN. ) ;
#13 = CC_DESIGN_PERSON_AND_ORGANIZATION_ASSIGNMENT ( #67, #55, ( #12 ) ) ;
#14 = DIRECTION ( 'NONE',  ( -3.491481338843133355E-15, 1.224646799147353207E-16, -1.000000000000000000 ) ) ;
#15 = CONICAL_SURFACE ( 'NONE', #123, 0.5500000000000001554, 0.7853981633974510546 ) ;
#16 = EDGE_LOOP ( 'NONE', ( #134 ) ) ;
#17 = CALENDAR_DATE ( 2021, 7, 10 ) ;
#18 = ORIENTED_EDGE ( 'NONE', *, *, #77, .F. ) ;
#19 = APPROVAL_STATUS ( 'not_yet_approved' ) ;
#20 = APPROVAL_PERSON_ORGANIZATION ( #94, #120, #56 ) ;
#21 = CC_DESIGN_APPROVAL ( #72, ( #66 ) ) ;
#22 = CARTESIAN_POINT ( 'NONE',  ( 0.0000000000000000000, 0.0000000000000000000, 0.0000000000000000000 ) ) ;
#23 = PRODUCT ( '36989', '36989', '', ( #222 ) ) ;
#24 = VERTEX_POINT ( 'NONE', #53 ) ;
#25 = DIRECTION ( 'NONE',  ( 0.0000000000000000000, 1.000000000000000000, 0.0000000000000000000 ) ) ;
#26 = APPLICATION_PROTOCOL_DEFINITION ( 'international standard', 'config_control_design', 1994, #163 ) ;
#27 = FACE_OUTER_BOUND ( 'NONE', #214, .T. ) ;
#28 = DATE_TIME_ROLE ( 'classification_date' ) ;
#29 = ORGANIZATION ( 'UNSPECIFIED', 'UNSPECIFIED', '' ) ;
#30 = ORIENTED_EDGE ( 'NONE', *, *, #173, .T. ) ;
#31 = DIRECTION ( 'NONE',  ( 0.0000000000000000000, -1.000000000000000000, 0.0000000000000000000 ) ) ;
#32 = COORDINATED_UNIVERSAL_TIME_OFFSET ( 1, 0, .AHEAD. ) ;
#33 = AXIS2_PLACEMENT_3D ( 'NONE', #110, #150, #5 ) ;
#34 = EDGE_CURVE ( 'NONE', #144, #144, #35, .T. ) ;
#35 = CIRCLE ( 'NONE', #74, 0.7499999999999973355 ) ;
#36 = ADVANCED_FACE ( 'NONE', ( #133, #188 ), #211, .T. ) ;
#37 =( LENGTH_UNIT ( ) NAMED_UNIT ( * ) SI_UNIT ( .MILLI., .METRE. ) );
#38 = CC_DESIGN_DATE_AND_TIME_ASSIGNMENT ( #60, #28, ( #66 ) ) ;
#39 = PERSON_AND_ORGANIZATION ( #106, #29 ) ;
#40 =( GEOMETRIC_REPRESENTATION_CONTEXT ( 3 ) GLOBAL_UNCERTAINTY_ASSIGNED_CONTEXT ( ( #148 ) ) GLOBAL_UNIT_ASSIGNED_CONTEXT ( ( #37, #2, #82 ) ) REPRESENTATION_CONTEXT ( 'NONE', 'WORKASPACE' ) );
#41 = CC_DESIGN_APPROVAL ( #120, ( #12 ) ) ;
#42 = DIRECTION ( 'NONE',  ( 0.0000000000000000000, 0.0000000000000000000, 1.000000000000000000 ) ) ;
#43 = CYLINDRICAL_SURFACE ( 'NONE', #171, 0.7499999999999986677 ) ;
#44 = ADVANCED_FACE ( 'NONE', ( #99 ), #195, .T. ) ;
#45 = DIRECTION ( 'NONE',  ( 4.275831445896958607E-31, 1.000000000000000000, 1.224646799147353207E-16 ) ) ;
#46 = APPROVAL_DATE_TIME ( #119, #72 ) ;
#47 = CARTESIAN_POINT ( 'NONE',  ( 2.663398154291550868E-14, -9.341943169568407810E-16, 7.628275496308511983 ) ) ;
#48 = CONICAL_SURFACE ( 'NONE', #157, 0.7499999999999973355, 0.5235987755982928205 ) ;
#49 = ORIENTED_EDGE ( 'NONE', *, *, #77, .T. ) ;
#50 = CALENDAR_DATE ( 2021, 7, 10 ) ;
#51 = DIRECTION ( 'NONE',  ( 3.491481338843133355E-15, -1.224646799147353207E-16, 1.000000000000000000 ) ) ;
#52 = LOCAL_TIME ( 15, 47, 2.000000000000000000, #200 ) ;
#53 = CARTESIAN_POINT ( 'NONE',  ( 2.478951750578624367E-14, 0.4449999999999978972, 7.099999999999999645 ) ) ;
#54 = CARTESIAN_POINT ( 'NONE',  ( 0.0000000000000000000, 0.0000000000000000000, 0.0000000000000000000 ) ) ;
#55 = PERSON_AND_ORGANIZATION_ROLE ( 'creator' ) ;
#56 = APPROVAL_ROLE ( '' ) ;
#57 = CIRCLE ( 'NONE', #217, 0.5500000000000001554 ) ;
#58 = ORIENTED_EDGE ( 'NONE', *, *, #165, .T. ) ;
#59 = DIRECTION ( 'NONE',  ( -3.491481338843133355E-15, 1.224646799147353207E-16, -1.000000000000000000 ) ) ;
#60 = DATE_AND_TIME ( #50, #153 ) ;
#61 = CIRCLE ( 'NONE', #212, 0.4449999999999976752 ) ;
#62 = CC_DESIGN_PERSON_AND_ORGANIZATION_ASSIGNMENT ( #83, #113, ( #204 ) ) ;
#63 = CC_DESIGN_SECURITY_CLASSIFICATION ( #66, ( #12 ) ) ;
#64 = CARTESIAN_POINT ( 'NONE',  ( 1.040461438975253740E-13, 0.7499999999999963363, 29.80000000000000071 ) ) ;
#65 = AXIS2_PLACEMENT_3D ( 'NONE', #11, #216, #193 ) ;
#66 = SECURITY_CLASSIFICATION ( '', '', #190 ) ;
#67 = PERSON_AND_ORGANIZATION ( #106, #29 ) ;
#68 = VERTEX_POINT ( 'NONE', #128 ) ;
#69 = DIRECTION ( 'NONE',  ( 1.000000000000000000, 0.0000000000000000000, 0.0000000000000000000 ) ) ;
#70 = FACE_OUTER_BOUND ( 'NONE', #145, .T. ) ;
#71 = FACE_OUTER_BOUND ( 'NONE', #75, .T. ) ;
#72 = APPROVAL ( #189, 'UNSPECIFIED' ) ;
#73 = DIRECTION ( 'NONE',  ( -3.491481338843133355E-15, 1.224646799147353207E-16, -1.000000000000000000 ) ) ;
#74 = AXIS2_PLACEMENT_3D ( 'NONE', #84, #88, #131 ) ;
#75 = EDGE_LOOP ( 'NONE', ( #166 ) ) ;
#76 = MANIFOLD_SOLID_BREP ( 'Corps-Déplacer/Copier1[2]', #172 ) ;
#77 = EDGE_CURVE ( 'NONE', #221, #221, #206, .T. ) ;
#78 = EDGE_LOOP ( 'NONE', ( #18 ) ) ;
#79 = LOCAL_TIME ( 15, 47, 2.000000000000000000, #177 ) ;
#80 = ADVANCED_FACE ( 'NONE', ( #209, #70 ), #48, .T. ) ;
#81 = CARTESIAN_POINT ( 'NONE',  ( 2.663398154291550868E-14, 0.7499999999999963363, 7.628275496308511983 ) ) ;
#82 =( NAMED_UNIT ( * ) SI_UNIT ( $, .STERADIAN. ) SOLID_ANGLE_UNIT ( ) );
#83 = PERSON_AND_ORGANIZATION ( #106, #29 ) ;
#84 = CARTESIAN_POINT ( 'NONE',  ( 2.663398154291550868E-14, -9.341943169568407810E-16, 7.628275496308511983 ) ) ;
#85 = PLANE ( 'NONE',  #7 ) ;
#86 = CARTESIAN_POINT ( 'NONE',  ( 1.040461438975253740E-13, -3.649447461459112464E-15, 29.80000000000000071 ) ) ;
#87 = EDGE_CURVE ( 'NONE', #141, #141, #57, .T. ) ;
#88 = DIRECTION ( 'NONE',  ( -3.491481338843133355E-15, 1.224646799147353207E-16, -1.000000000000000000 ) ) ;
#89 = FACE_OUTER_BOUND ( 'NONE', #215, .T. ) ;
#90 = AXIS2_PLACEMENT_3D ( 'NONE', #118, #167, #132 ) ;
#91 = APPROVAL ( #208, 'UNSPECIFIED' ) ;
#92 = CARTESIAN_POINT ( 'NONE',  ( 9.335626691683099040E-16, -3.274497050524823538E-17, 0.2673829754672658043 ) ) ;
#93 = PERSON_AND_ORGANIZATION ( #106, #29 ) ;
#94 = PERSON_AND_ORGANIZATION ( #106, #29 ) ;
#95 = CIRCLE ( 'NONE', #65, 0.4449999999999987854 ) ;
#96 = FACE_OUTER_BOUND ( 'NONE', #78, .T. ) ;
#97 = CARTESIAN_POINT ( 'NONE',  ( 0.0000000000000000000, 0.0000000000000000000, 0.0000000000000000000 ) ) ;
#98 = APPROVAL_ROLE ( '' ) ;
#99 = FACE_OUTER_BOUND ( 'NONE', #207, .T. ) ;
#100 = DIRECTION ( 'NONE',  ( -3.491481338843133355E-15, 1.224646799147353207E-16, -1.000000000000000000 ) ) ;
#101 = PLANE ( 'NONE',  #33 ) ;
#102 = AXIS2_PLACEMENT_3D ( 'NONE', #122, #51, #181 ) ;
#103 = DIRECTION ( 'NONE',  ( -3.491481338843133355E-15, 1.224646799147353207E-16, -1.000000000000000000 ) ) ;
#104 = LOCAL_TIME ( 15, 47, 2.000000000000000000, #143 ) ;
#105 = ORIENTED_EDGE ( 'NONE', *, *, #87, .T. ) ;
#106 = PERSON ( 'UNSPECIFIED', 'UNSPECIFIED', 'UNSPECIFIED', ('UNSPECIFIED'), ('UNSPECIFIED'), ('UNSPECIFIED') ) ;
#107 = FACE_OUTER_BOUND ( 'NONE', #3, .T. ) ;
#108 = ADVANCED_FACE ( 'NONE', ( #27 ), #101, .F. ) ;
#109 = CALENDAR_DATE ( 2021, 7, 10 ) ;
#110 = CARTESIAN_POINT ( 'NONE',  ( 2.478951750578624367E-14, 3.336965516422611008E-33, 7.099999999999999645 ) ) ;
#111 = AXIS2_PLACEMENT_3D ( 'NONE', #180, #73, #169 ) ;
#112 = CARTESIAN_POINT ( 'NONE',  ( 9.335626691683101012E-16, 0.4449999999999976197, 0.2673829754672658598 ) ) ;
#113 = PERSON_AND_ORGANIZATION_ROLE ( 'creator' ) ;
#114 = CC_DESIGN_DATE_AND_TIME_ASSIGNMENT ( #161, #223, ( #204 ) ) ;
#115 = SHAPE_DEFINITION_REPRESENTATION ( #199, #202 ) ;
#116 = DIRECTION ( 'NONE',  ( -3.491481338843133355E-15, 1.224646799147353207E-16, -1.000000000000000000 ) ) ;
#117 = CARTESIAN_POINT ( 'NONE',  ( 1.047444401652940007E-13, -3.673940397442059178E-15, 30.00000000000000000 ) ) ;
#118 = CARTESIAN_POINT ( 'NONE',  ( 9.335626691683099040E-16, -3.274497050524823538E-17, 0.2673829754672658043 ) ) ;
#119 = DATE_AND_TIME ( #183, #138 ) ;
#120 = APPROVAL ( #19, 'UNSPECIFIED' ) ;
#121 = PLANE ( 'NONE',  #102 ) ;
#122 = CARTESIAN_POINT ( 'NONE',  ( 2.478951750578624367E-14, 3.336965516422611008E-33, 7.099999999999999645 ) ) ;
#123 = AXIS2_PLACEMENT_3D ( 'NONE', #201, #8, #9 ) ;
#124 = CALENDAR_DATE ( 2021, 7, 10 ) ;
#125 = AXIS2_PLACEMENT_3D ( 'NONE', #86, #103, #25 ) ;
#126 = FACE_BOUND ( 'NONE', #182, .T. ) ;
#127 = DIRECTION ( 'NONE',  ( 4.275831445896959482E-31, 1.000000000000000000, 1.224646799147353207E-16 ) ) ;
#128 = CARTESIAN_POINT ( 'NONE',  ( 2.478951750578624367E-14, 0.4449999999999978972, 7.099999999999999645 ) ) ;
#129 = VERTEX_POINT ( 'NONE', #112 ) ;
#130 = EDGE_CURVE ( 'NONE', #24, #24, #175, .T. ) ;
#131 = DIRECTION ( 'NONE',  ( 0.0000000000000000000, 1.000000000000000000, 0.0000000000000000000 ) ) ;
#132 = DIRECTION ( 'NONE',  ( -4.327932459297182080E-31, -1.000000000000000000, -1.218204688185966473E-16 ) ) ;
#133 = FACE_OUTER_BOUND ( 'NONE', #1, .T. ) ;
#134 = ORIENTED_EDGE ( 'NONE', *, *, #130, .F. ) ;
#135 = PERSON_AND_ORGANIZATION ( #106, #29 ) ;
#136 = EDGE_LOOP ( 'NONE', ( #58 ) ) ;
#137 = APPROVAL_PERSON_ORGANIZATION ( #203, #91, #98 ) ;
#138 = LOCAL_TIME ( 15, 47, 2.000000000000000000, #32 ) ;
#139 = MANIFOLD_SOLID_BREP ( 'Corps-Déplacer/Copier1[1]', #159 ) ;
#140 = ADVANCED_FACE ( 'NONE', ( #71, #89 ), #43, .T. ) ;
#141 = VERTEX_POINT ( 'NONE', #205 ) ;
#142 = CC_DESIGN_PERSON_AND_ORGANIZATION_ASSIGNMENT ( #4, #213, ( #66 ) ) ;
#143 = COORDINATED_UNIVERSAL_TIME_OFFSET ( 1, 0, .AHEAD. ) ;
#144 = VERTEX_POINT ( 'NONE', #81 ) ;
#145 = EDGE_LOOP ( 'NONE', ( #192 ) ) ;
#146 = PERSON_AND_ORGANIZATION_ROLE ( 'design_owner' ) ;
#147 = ORIENTED_EDGE ( 'NONE', *, *, #130, .T. ) ;
#148 = UNCERTAINTY_MEASURE_WITH_UNIT (LENGTH_MEASURE( 1.000000000000000082E-05 ), #37, 'distance_accuracy_value', 'NONE');
#149 = APPROVAL_DATE_TIME ( #179, #120 ) ;
#150 = DIRECTION ( 'NONE',  ( 3.491481338843133355E-15, -1.224646799147353207E-16, 1.000000000000000000 ) ) ;
#151 = DIRECTION ( 'NONE',  ( 0.0000000000000000000, 1.000000000000000000, 0.0000000000000000000 ) ) ;
#152 = AXIS2_PLACEMENT_3D ( 'NONE', #22, #42, #69 ) ;
#153 = LOCAL_TIME ( 15, 47, 2.000000000000000000, #154 ) ;
#154 = COORDINATED_UNIVERSAL_TIME_OFFSET ( 1, 0, .AHEAD. ) ;
#155 = ORIENTED_EDGE ( 'NONE', *, *, #165, .F. ) ;
#156 = ADVANCED_FACE ( 'NONE', ( #107 ), #85, .F. ) ;
#157 = AXIS2_PLACEMENT_3D ( 'NONE', #47, #210, #31 ) ;
#158 = APPROVAL_PERSON_ORGANIZATION ( #135, #72, #10 ) ;
#159 = CLOSED_SHELL ( 'NONE', ( #108, #80, #140, #194, #156 ) ) ;
#160 = APPLICATION_PROTOCOL_DEFINITION ( 'international standard', 'config_control_design', 1994, #197 ) ;
#161 = DATE_AND_TIME ( #17, #79 ) ;
#162 = PERSON_AND_ORGANIZATION_ROLE ( 'design_supplier' ) ;
#163 = APPLICATION_CONTEXT ( 'configuration controlled 3d designs of mechanical parts and assemblies' ) ;
#164 = APPROVAL_DATE_TIME ( #178, #91 ) ;
#165 = EDGE_CURVE ( 'NONE', #68, #68, #95, .T. ) ;
#166 = ORIENTED_EDGE ( 'NONE', *, *, #34, .F. ) ;
#167 = DIRECTION ( 'NONE',  ( 3.491481338843133355E-15, -1.224646799147353207E-16, 1.000000000000000000 ) ) ;
#168 = CC_DESIGN_APPROVAL ( #91, ( #204 ) ) ;
#169 = DIRECTION ( 'NONE',  ( 0.0000000000000000000, 1.000000000000000000, 0.0000000000000000000 ) ) ;
#170 = ORIENTED_EDGE ( 'NONE', *, *, #173, .F. ) ;
#171 = AXIS2_PLACEMENT_3D ( 'NONE', #54, #100, #127 ) ;
#172 = CLOSED_SHELL ( 'NONE', ( #44, #36, #220 ) ) ;
#173 = EDGE_CURVE ( 'NONE', #129, #129, #61, .T. ) ;
#174 = PRODUCT_RELATED_PRODUCT_CATEGORY ( 'detail', '', ( #23 ) ) ;
#175 = CIRCLE ( 'NONE', #111, 0.4449999999999987854 ) ;
#176 = DIRECTION ( 'NONE',  ( 4.327932459297182080E-31, 1.000000000000000000, 1.218204688185966473E-16 ) ) ;
#177 = COORDINATED_UNIVERSAL_TIME_OFFSET ( 1, 0, .AHEAD. ) ;
#178 = DATE_AND_TIME ( #124, #52 ) ;
#179 = DATE_AND_TIME ( #109, #104 ) ;
#180 = CARTESIAN_POINT ( 'NONE',  ( 2.478951750578624367E-14, -8.694992273946207746E-16, 7.099999999999999645 ) ) ;
#181 = DIRECTION ( 'NONE',  ( -4.275831445896958607E-31, -1.000000000000000000, -1.224646799147353207E-16 ) ) ;
#182 = EDGE_LOOP ( 'NONE', ( #105 ) ) ;
#183 = CALENDAR_DATE ( 2021, 7, 10 ) ;
#184 = EDGE_LOOP ( 'NONE', ( #155 ) ) ;
#185 = CARTESIAN_POINT ( 'NONE',  ( 1.047444401652940007E-13, 4.124339402320053683E-33, 30.00000000000000000 ) ) ;
#186 = CC_DESIGN_PERSON_AND_ORGANIZATION_ASSIGNMENT ( #39, #162, ( #12 ) ) ;
#187 = FACE_OUTER_BOUND ( 'NONE', #184, .T. ) ;
#188 = FACE_OUTER_BOUND ( 'NONE', #136, .T. ) ;
#189 = APPROVAL_STATUS ( 'not_yet_approved' ) ;
#190 = SECURITY_CLASSIFICATION_LEVEL ( 'unclassified' ) ;
#191 = ORIENTED_EDGE ( 'NONE', *, *, #87, .F. ) ;
#192 = ORIENTED_EDGE ( 'NONE', *, *, #34, .T. ) ;
#193 = DIRECTION ( 'NONE',  ( 0.0000000000000000000, 1.000000000000000000, 0.0000000000000000000 ) ) ;
#194 = ADVANCED_FACE ( 'NONE', ( #96, #126 ), #15, .T. ) ;
#195 = CONICAL_SURFACE ( 'NONE', #90, 0.4449999999999976752, 1.029744258676649871 ) ;
#196 = CC_DESIGN_PERSON_AND_ORGANIZATION_ASSIGNMENT ( #93, #146, ( #23 ) ) ;
#197 = APPLICATION_CONTEXT ( 'configuration controlled 3d designs of mechanical parts and assemblies' ) ;
#198 = AXIS2_PLACEMENT_3D ( 'NONE', #97, #6, #45 ) ;
#199 = PRODUCT_DEFINITION_SHAPE ( 'NONE', 'NONE',  #204 ) ;
#200 = COORDINATED_UNIVERSAL_TIME_OFFSET ( 1, 0, .AHEAD. ) ;
#201 = CARTESIAN_POINT ( 'NONE',  ( 1.047444401652940007E-13, -3.673940397442059178E-15, 30.00000000000000000 ) ) ;
#202 = ADVANCED_BREP_SHAPE_REPRESENTATION ( '36989', ( #139, #76, #152 ), #40 ) ;
#203 = PERSON_AND_ORGANIZATION ( #106, #29 ) ;
#204 = PRODUCT_DEFINITION ( 'UNKNOWN', '', #12, #219 ) ;
#205 = CARTESIAN_POINT ( 'NONE',  ( 1.047444401652940007E-13, 0.5499999999999964917, 30.00000000000000000 ) ) ;
#206 = CIRCLE ( 'NONE', #125, 0.7500000000000000000 ) ;
#207 = EDGE_LOOP ( 'NONE', ( #30 ) ) ;
#208 = APPROVAL_STATUS ( 'not_yet_approved' ) ;
#209 = FACE_BOUND ( 'NONE', #16, .T. ) ;
#210 = DIRECTION ( 'NONE',  ( 3.491481338843133355E-15, -1.224646799147353207E-16, 1.000000000000000000 ) ) ;
#211 = CYLINDRICAL_SURFACE ( 'NONE', #198, 0.4449999999999982303 ) ;
#212 = AXIS2_PLACEMENT_3D ( 'NONE', #92, #116, #176 ) ;
#213 = PERSON_AND_ORGANIZATION_ROLE ( 'classification_officer' ) ;
#214 = EDGE_LOOP ( 'NONE', ( #147 ) ) ;
#215 = EDGE_LOOP ( 'NONE', ( #49 ) ) ;
#216 = DIRECTION ( 'NONE',  ( -3.491481338843133355E-15, 1.224646799147353207E-16, -1.000000000000000000 ) ) ;
#217 = AXIS2_PLACEMENT_3D ( 'NONE', #117, #59, #151 ) ;
#218 = DIRECTION ( 'NONE',  ( 4.275831445896958607E-31, 1.000000000000000000, 1.224646799147353207E-16 ) ) ;
#219 = DESIGN_CONTEXT ( 'detailed design', #197, 'design' ) ;
#220 = ADVANCED_FACE ( 'NONE', ( #187 ), #121, .T. ) ;
#221 = VERTEX_POINT ( 'NONE', #64 ) ;
#222 = MECHANICAL_CONTEXT ( 'NONE', #163, 'mechanical' ) ;
#223 = DATE_TIME_ROLE ( 'creation_date' ) ;
ENDSEC;
END-ISO-10303-21;
