ISO-10303-21;
HEADER;
FILE_DESCRIPTION (( 'STEP AP203' ),
    '1' );
FILE_NAME ('36988.step',
    '2021-10-07T13:47:02',
    ( '' ),
    ( '' ),
    'SwSTEP 2.0',
    'SolidWorks 2019',
    '' );
FILE_SCHEMA (( 'CONFIG_CONTROL_DESIGN' ));
ENDSEC;

DATA;
#1 = DATE_AND_TIME ( #100, #12 ) ;
#2 = CIRCLE ( 'NONE', #178, 0.7499999999999973355 ) ;
#3 = APPROVAL_STATUS ( 'not_yet_approved' ) ;
#4 = CIRCLE ( 'NONE', #118, 0.4399999999999977818 ) ;
#5 = CALENDAR_DATE ( 2021, 7, 10 ) ;
#6 = PERSON_AND_ORGANIZATION_ROLE ( 'design_supplier' ) ;
#7 = ORIENTED_EDGE ( 'NONE', *, *, #78, .F. ) ;
#8 = ADVANCED_FACE ( 'NONE', ( #102 ), #139, .T. ) ;
#9 = DIRECTION ( 'NONE',  ( -3.491481338843133355E-15, 1.224646799147353207E-16, -1.000000000000000000 ) ) ;
#10 = EDGE_LOOP ( 'NONE', ( #53 ) ) ;
#11 = CC_DESIGN_DATE_AND_TIME_ASSIGNMENT ( #49, #190, ( #36 ) ) ;
#12 = LOCAL_TIME ( 15, 47, 2.000000000000000000, #165 ) ;
#13 = ORIENTED_EDGE ( 'NONE', *, *, #148, .T. ) ;
#14 = CLOSED_SHELL ( 'NONE', ( #8, #136, #18 ) ) ;
#15 = VERTEX_POINT ( 'NONE', #222 ) ;
#16 = ORIENTED_EDGE ( 'NONE', *, *, #132, .F. ) ;
#17 = CARTESIAN_POINT ( 'NONE',  ( 1.040461438975253740E-13, 0.7499999999999963363, 29.80000000000000071 ) ) ;
#18 = ADVANCED_FACE ( 'NONE', ( #29 ), #135, .T. ) ;
#19 = APPROVAL_DATE_TIME ( #191, #46 ) ;
#20 = MECHANICAL_CONTEXT ( 'NONE', #94, 'mechanical' ) ;
#21 = PRODUCT_DEFINITION_SHAPE ( 'NONE', 'NONE',  #36 ) ;
#22 = PERSON_AND_ORGANIZATION ( #210, #193 ) ;
#23 = SECURITY_CLASSIFICATION ( '', '', #188 ) ;
#24 = DIRECTION ( 'NONE',  ( 1.000000000000000000, 0.0000000000000000000, 0.0000000000000000000 ) ) ;
#25 = APPROVAL_DATE_TIME ( #1, #121 ) ;
#26 = ORIENTED_EDGE ( 'NONE', *, *, #99, .F. ) ;
#27 = EDGE_LOOP ( 'NONE', ( #82 ) ) ;
#28 = CC_DESIGN_SECURITY_CLASSIFICATION ( #23, ( #205 ) ) ;
#29 = FACE_OUTER_BOUND ( 'NONE', #69, .T. ) ;
#30 = ADVANCED_FACE ( 'NONE', ( #87 ), #55, .F. ) ;
#31 = ORIENTED_EDGE ( 'NONE', *, *, #132, .T. ) ;
#32 = DIRECTION ( 'NONE',  ( 4.275831445896959482E-31, 1.000000000000000000, 1.224646799147353207E-16 ) ) ;
#33 = UNCERTAINTY_MEASURE_WITH_UNIT (LENGTH_MEASURE( 1.000000000000000082E-05 ), #161, 'distance_accuracy_value', 'NONE');
#34 = AXIS2_PLACEMENT_3D ( 'NONE', #140, #56, #198 ) ;
#35 = AXIS2_PLACEMENT_3D ( 'NONE', #91, #124, #146 ) ;
#36 = PRODUCT_DEFINITION ( 'UNKNOWN', '', #205, #151 ) ;
#37 = FACE_OUTER_BOUND ( 'NONE', #133, .T. ) ;
#38 = EDGE_LOOP ( 'NONE', ( #116 ) ) ;
#39 = CARTESIAN_POINT ( 'NONE',  ( 1.047444401652940007E-13, -3.673940397442059178E-15, 30.00000000000000000 ) ) ;
#40 =( GEOMETRIC_REPRESENTATION_CONTEXT ( 3 ) GLOBAL_UNCERTAINTY_ASSIGNED_CONTEXT ( ( #33 ) ) GLOBAL_UNIT_ASSIGNED_CONTEXT ( ( #161, #74, #59 ) ) REPRESENTATION_CONTEXT ( 'NONE', 'WORKASPACE' ) );
#41 = CARTESIAN_POINT ( 'NONE',  ( 1.040461438975253740E-13, -3.649447461459112464E-15, 29.80000000000000071 ) ) ;
#42 = AXIS2_PLACEMENT_3D ( 'NONE', #52, #155, #103 ) ;
#43 = DIRECTION ( 'NONE',  ( 4.377113509971012948E-31, 1.000000000000000000, 1.232047923278988609E-16 ) ) ;
#44 = PERSON_AND_ORGANIZATION ( #210, #193 ) ;
#45 = CC_DESIGN_APPROVAL ( #46, ( #205 ) ) ;
#46 = APPROVAL ( #3, 'UNSPECIFIED' ) ;
#47 = PERSON_AND_ORGANIZATION_ROLE ( 'creator' ) ;
#48 = APPROVAL_ROLE ( '' ) ;
#49 = DATE_AND_TIME ( #5, #150 ) ;
#50 = ADVANCED_FACE ( 'NONE', ( #157, #68 ), #156, .T. ) ;
#51 = CIRCLE ( 'NONE', #76, 0.7500000000000000000 ) ;
#52 = CARTESIAN_POINT ( 'NONE',  ( 9.230732009754076208E-16, -3.237704948833533497E-17, 0.2643786723721280318 ) ) ;
#53 = ORIENTED_EDGE ( 'NONE', *, *, #154, .T. ) ;
#54 = AXIS2_PLACEMENT_3D ( 'NONE', #169, #119, #86 ) ;
#55 = PLANE ( 'NONE',  #54 ) ;
#56 = DIRECTION ( 'NONE',  ( 3.491481338843133355E-15, -1.224646799147353207E-16, 1.000000000000000000 ) ) ;
#57 = DIRECTION ( 'NONE',  ( -3.491481338843133355E-15, 1.224646799147353207E-16, -1.000000000000000000 ) ) ;
#58 = FACE_OUTER_BOUND ( 'NONE', #137, .T. ) ;
#59 =( NAMED_UNIT ( * ) SI_UNIT ( $, .STERADIAN. ) SOLID_ANGLE_UNIT ( ) );
#60 = APPROVAL_ROLE ( '' ) ;
#61 = PERSON_AND_ORGANIZATION ( #210, #193 ) ;
#62 = PERSON_AND_ORGANIZATION ( #210, #193 ) ;
#63 = ADVANCED_FACE ( 'NONE', ( #171 ), #71, .F. ) ;
#64 = ORIENTED_EDGE ( 'NONE', *, *, #159, .F. ) ;
#65 = AXIS2_PLACEMENT_3D ( 'NONE', #214, #182, #32 ) ;
#66 = CIRCLE ( 'NONE', #184, 0.5500000000000001554 ) ;
#67 = PRODUCT_RELATED_PRODUCT_CATEGORY ( 'detail', '', ( #215 ) ) ;
#68 = FACE_OUTER_BOUND ( 'NONE', #195, .T. ) ;
#69 = EDGE_LOOP ( 'NONE', ( #64 ) ) ;
#70 = AXIS2_PLACEMENT_3D ( 'NONE', #117, #197, #170 ) ;
#71 = PLANE ( 'NONE',  #34 ) ;
#72 = VERTEX_POINT ( 'NONE', #174 ) ;
#73 = DIRECTION ( 'NONE',  ( 0.0000000000000000000, 1.000000000000000000, 0.0000000000000000000 ) ) ;
#74 =( NAMED_UNIT ( * ) PLANE_ANGLE_UNIT ( ) SI_UNIT ( $, .RADIAN. ) );
#75 = CARTESIAN_POINT ( 'NONE',  ( 2.478951750578624367E-14, 0.4399999999999972267, 7.099999999999999645 ) ) ;
#76 = AXIS2_PLACEMENT_3D ( 'NONE', #41, #125, #220 ) ;
#77 = PERSON_AND_ORGANIZATION ( #210, #193 ) ;
#78 = EDGE_CURVE ( 'NONE', #15, #15, #97, .T. ) ;
#79 = COORDINATED_UNIVERSAL_TIME_OFFSET ( 1, 0, .AHEAD. ) ;
#80 = MANIFOLD_SOLID_BREP ( 'Corps-Déplacer/Copier1[1]', #207 ) ;
#81 = CALENDAR_DATE ( 2021, 7, 10 ) ;
#82 = ORIENTED_EDGE ( 'NONE', *, *, #78, .T. ) ;
#83 = DIRECTION ( 'NONE',  ( 0.0000000000000000000, 1.000000000000000000, 0.0000000000000000000 ) ) ;
#84 = CC_DESIGN_PERSON_AND_ORGANIZATION_ASSIGNMENT ( #22, #126, ( #36 ) ) ;
#85 = MANIFOLD_SOLID_BREP ( 'Corps-Déplacer/Copier1[2]', #14 ) ;
#86 = DIRECTION ( 'NONE',  ( 4.275831445896958607E-31, 1.000000000000000000, 1.224646799147353207E-16 ) ) ;
#87 = FACE_OUTER_BOUND ( 'NONE', #213, .T. ) ;
#88 = CC_DESIGN_PERSON_AND_ORGANIZATION_ASSIGNMENT ( #114, #47, ( #205 ) ) ;
#89 = DIRECTION ( 'NONE',  ( -3.491481338843133355E-15, 1.224646799147353207E-16, -1.000000000000000000 ) ) ;
#90 = ADVANCED_BREP_SHAPE_REPRESENTATION ( '36988', ( #80, #85, #145 ), #40 ) ;
#91 = CARTESIAN_POINT ( 'NONE',  ( 0.0000000000000000000, 0.0000000000000000000, 0.0000000000000000000 ) ) ;
#92 = DIRECTION ( 'NONE',  ( -3.491481338843133355E-15, 1.224646799147353207E-16, -1.000000000000000000 ) ) ;
#93 = VERTEX_POINT ( 'NONE', #75 ) ;
#94 = APPLICATION_CONTEXT ( 'configuration controlled 3d designs of mechanical parts and assemblies' ) ;
#95 = ADVANCED_FACE ( 'NONE', ( #37, #201 ), #194, .T. ) ;
#96 = CALENDAR_DATE ( 2021, 7, 10 ) ;
#97 = CIRCLE ( 'NONE', #163, 0.4399999999999981148 ) ;
#98 = APPROVAL_DATE_TIME ( #131, #180 ) ;
#99 = EDGE_CURVE ( 'NONE', #202, #202, #66, .T. ) ;
#100 = CALENDAR_DATE ( 2021, 7, 10 ) ;
#101 = PERSON_AND_ORGANIZATION ( #210, #193 ) ;
#102 = FACE_OUTER_BOUND ( 'NONE', #10, .T. ) ;
#103 = DIRECTION ( 'NONE',  ( -4.377113509971012948E-31, -1.000000000000000000, -1.232047923278988609E-16 ) ) ;
#104 = ORIENTED_EDGE ( 'NONE', *, *, #99, .T. ) ;
#105 = APPLICATION_PROTOCOL_DEFINITION ( 'international standard', 'config_control_design', 1994, #94 ) ;
#106 = AXIS2_PLACEMENT_3D ( 'NONE', #39, #57, #158 ) ;
#107 = CC_DESIGN_PERSON_AND_ORGANIZATION_ASSIGNMENT ( #77, #208, ( #215 ) ) ;
#108 = FACE_BOUND ( 'NONE', #138, .T. ) ;
#109 = LOCAL_TIME ( 15, 47, 2.000000000000000000, #115 ) ;
#110 = DIRECTION ( 'NONE',  ( 0.0000000000000000000, -1.000000000000000000, 0.0000000000000000000 ) ) ;
#111 = CARTESIAN_POINT ( 'NONE',  ( 2.666421865827828373E-14, -9.352548921955654308E-16, 7.636935750346355078 ) ) ;
#112 = DIRECTION ( 'NONE',  ( -3.491481338843133355E-15, 1.224646799147353207E-16, -1.000000000000000000 ) ) ;
#113 = PERSON_AND_ORGANIZATION_ROLE ( 'classification_officer' ) ;
#114 = PERSON_AND_ORGANIZATION ( #210, #193 ) ;
#115 = COORDINATED_UNIVERSAL_TIME_OFFSET ( 1, 0, .AHEAD. ) ;
#116 = ORIENTED_EDGE ( 'NONE', *, *, #159, .T. ) ;
#117 = CARTESIAN_POINT ( 'NONE',  ( 2.478951750578624367E-14, 3.299471521856059505E-33, 7.099999999999999645 ) ) ;
#118 = AXIS2_PLACEMENT_3D ( 'NONE', #123, #199, #43 ) ;
#119 = DIRECTION ( 'NONE',  ( -3.491481338843133355E-15, 1.224646799147353207E-16, -1.000000000000000000 ) ) ;
#120 = VERTEX_POINT ( 'NONE', #17 ) ;
#121 = APPROVAL ( #164, 'UNSPECIFIED' ) ;
#122 = CARTESIAN_POINT ( 'NONE',  ( 0.0000000000000000000, 0.0000000000000000000, 0.0000000000000000000 ) ) ;
#123 = CARTESIAN_POINT ( 'NONE',  ( 9.230732009754076208E-16, -3.237704948833533497E-17, 0.2643786723721280318 ) ) ;
#124 = DIRECTION ( 'NONE',  ( -3.491481338843133355E-15, 1.224646799147353207E-16, -1.000000000000000000 ) ) ;
#125 = DIRECTION ( 'NONE',  ( -3.491481338843133355E-15, 1.224646799147353207E-16, -1.000000000000000000 ) ) ;
#126 = PERSON_AND_ORGANIZATION_ROLE ( 'creator' ) ;
#127 = LOCAL_TIME ( 15, 47, 2.000000000000000000, #147 ) ;
#128 = CALENDAR_DATE ( 2021, 7, 10 ) ;
#129 = AXIS2_PLACEMENT_3D ( 'NONE', #185, #92, #175 ) ;
#130 = DATE_TIME_ROLE ( 'classification_date' ) ;
#131 = DATE_AND_TIME ( #128, #173 ) ;
#132 = EDGE_CURVE ( 'NONE', #120, #120, #51, .T. ) ;
#133 = EDGE_LOOP ( 'NONE', ( #16 ) ) ;
#134 = EDGE_LOOP ( 'NONE', ( #13 ) ) ;
#135 = PLANE ( 'NONE',  #70 ) ;
#136 = ADVANCED_FACE ( 'NONE', ( #58, #160 ), #218, .T. ) ;
#137 = EDGE_LOOP ( 'NONE', ( #181 ) ) ;
#138 = EDGE_LOOP ( 'NONE', ( #7 ) ) ;
#139 = CONICAL_SURFACE ( 'NONE', #42, 0.4399999999999977818, 1.029744258676649871 ) ;
#140 = CARTESIAN_POINT ( 'NONE',  ( 2.478951750578624367E-14, 3.299471521856059505E-33, 7.099999999999999645 ) ) ;
#141 = CC_DESIGN_APPROVAL ( #180, ( #23 ) ) ;
#142 = CARTESIAN_POINT ( 'NONE',  ( 1.047444401652940007E-13, -3.673940397442059178E-15, 30.00000000000000000 ) ) ;
#143 = VERTEX_POINT ( 'NONE', #216 ) ;
#144 = DIRECTION ( 'NONE',  ( 0.0000000000000000000, 1.000000000000000000, 0.0000000000000000000 ) ) ;
#145 = AXIS2_PLACEMENT_3D ( 'NONE', #122, #200, #24 ) ;
#146 = DIRECTION ( 'NONE',  ( 4.275831445896958607E-31, 1.000000000000000000, 1.224646799147353207E-16 ) ) ;
#147 = COORDINATED_UNIVERSAL_TIME_OFFSET ( 1, 0, .AHEAD. ) ;
#148 = EDGE_CURVE ( 'NONE', #143, #143, #2, .T. ) ;
#149 = PERSON_AND_ORGANIZATION ( #210, #193 ) ;
#150 = LOCAL_TIME ( 15, 47, 2.000000000000000000, #177 ) ;
#151 = DESIGN_CONTEXT ( 'detailed design', #189, 'design' ) ;
#152 = APPROVAL_STATUS ( 'not_yet_approved' ) ;
#153 = APPLICATION_PROTOCOL_DEFINITION ( 'international standard', 'config_control_design', 1994, #189 ) ;
#154 = EDGE_CURVE ( 'NONE', #72, #72, #4, .T. ) ;
#155 = DIRECTION ( 'NONE',  ( 3.491481338843133355E-15, -1.224646799147353207E-16, 1.000000000000000000 ) ) ;
#156 = CYLINDRICAL_SURFACE ( 'NONE', #65, 0.7499999999999986677 ) ;
#157 = FACE_OUTER_BOUND ( 'NONE', #211, .T. ) ;
#158 = DIRECTION ( 'NONE',  ( 0.0000000000000000000, 1.000000000000000000, 0.0000000000000000000 ) ) ;
#159 = EDGE_CURVE ( 'NONE', #93, #93, #223, .T. ) ;
#160 = FACE_OUTER_BOUND ( 'NONE', #38, .T. ) ;
#161 =( LENGTH_UNIT ( ) NAMED_UNIT ( * ) SI_UNIT ( .MILLI., .METRE. ) );
#162 = EDGE_LOOP ( 'NONE', ( #104 ) ) ;
#163 = AXIS2_PLACEMENT_3D ( 'NONE', #167, #9, #83 ) ;
#164 = APPROVAL_STATUS ( 'not_yet_approved' ) ;
#165 = COORDINATED_UNIVERSAL_TIME_OFFSET ( 1, 0, .AHEAD. ) ;
#166 = SHAPE_DEFINITION_REPRESENTATION ( #21, #90 ) ;
#167 = CARTESIAN_POINT ( 'NONE',  ( 2.478951750578624367E-14, -8.694992273946207746E-16, 7.099999999999999645 ) ) ;
#168 = ADVANCED_FACE ( 'NONE', ( #108, #186 ), #219, .T. ) ;
#169 = CARTESIAN_POINT ( 'NONE',  ( 1.047444401652940007E-13, 4.124339402320053683E-33, 30.00000000000000000 ) ) ;
#170 = DIRECTION ( 'NONE',  ( -4.275831445896958607E-31, -1.000000000000000000, -1.224646799147353207E-16 ) ) ;
#171 = FACE_OUTER_BOUND ( 'NONE', #27, .T. ) ;
#172 = CARTESIAN_POINT ( 'NONE',  ( 1.047444401652940007E-13, 0.5499999999999964917, 30.00000000000000000 ) ) ;
#173 = LOCAL_TIME ( 15, 47, 2.000000000000000000, #79 ) ;
#174 = CARTESIAN_POINT ( 'NONE',  ( 9.230732009754078181E-16, 0.4399999999999977263, 0.2643786723721280874 ) ) ;
#175 = DIRECTION ( 'NONE',  ( 0.0000000000000000000, 1.000000000000000000, 0.0000000000000000000 ) ) ;
#176 = APPROVAL_PERSON_ORGANIZATION ( #101, #46, #48 ) ;
#177 = COORDINATED_UNIVERSAL_TIME_OFFSET ( 1, 0, .AHEAD. ) ;
#178 = AXIS2_PLACEMENT_3D ( 'NONE', #204, #112, #73 ) ;
#179 = DATE_AND_TIME ( #96, #127 ) ;
#180 = APPROVAL ( #152, 'UNSPECIFIED' ) ;
#181 = ORIENTED_EDGE ( 'NONE', *, *, #154, .F. ) ;
#182 = DIRECTION ( 'NONE',  ( -3.491481338843133355E-15, 1.224646799147353207E-16, -1.000000000000000000 ) ) ;
#183 = CC_DESIGN_PERSON_AND_ORGANIZATION_ASSIGNMENT ( #61, #113, ( #23 ) ) ;
#184 = AXIS2_PLACEMENT_3D ( 'NONE', #142, #89, #144 ) ;
#185 = CARTESIAN_POINT ( 'NONE',  ( 2.478951750578624367E-14, -8.694992273946207746E-16, 7.099999999999999645 ) ) ;
#186 = FACE_OUTER_BOUND ( 'NONE', #134, .T. ) ;
#187 = DIRECTION ( 'NONE',  ( 3.491481338843133355E-15, -1.224646799147353207E-16, 1.000000000000000000 ) ) ;
#188 = SECURITY_CLASSIFICATION_LEVEL ( 'unclassified' ) ;
#189 = APPLICATION_CONTEXT ( 'configuration controlled 3d designs of mechanical parts and assemblies' ) ;
#190 = DATE_TIME_ROLE ( 'creation_date' ) ;
#191 = DATE_AND_TIME ( #81, #109 ) ;
#192 = CC_DESIGN_PERSON_AND_ORGANIZATION_ASSIGNMENT ( #62, #6, ( #205 ) ) ;
#193 = ORGANIZATION ( 'UNSPECIFIED', 'UNSPECIFIED', '' ) ;
#194 = CONICAL_SURFACE ( 'NONE', #106, 0.5500000000000001554, 0.7853981633974510546 ) ;
#195 = EDGE_LOOP ( 'NONE', ( #31 ) ) ;
#196 = ORIENTED_EDGE ( 'NONE', *, *, #148, .F. ) ;
#197 = DIRECTION ( 'NONE',  ( 3.491481338843133355E-15, -1.224646799147353207E-16, 1.000000000000000000 ) ) ;
#198 = DIRECTION ( 'NONE',  ( -4.275831445896958607E-31, -1.000000000000000000, -1.224646799147353207E-16 ) ) ;
#199 = DIRECTION ( 'NONE',  ( -3.491481338843133355E-15, 1.224646799147353207E-16, -1.000000000000000000 ) ) ;
#200 = DIRECTION ( 'NONE',  ( 0.0000000000000000000, 0.0000000000000000000, 1.000000000000000000 ) ) ;
#201 = FACE_BOUND ( 'NONE', #162, .T. ) ;
#202 = VERTEX_POINT ( 'NONE', #172 ) ;
#203 = AXIS2_PLACEMENT_3D ( 'NONE', #111, #187, #110 ) ;
#204 = CARTESIAN_POINT ( 'NONE',  ( 2.666421865827828373E-14, -9.352548921955654308E-16, 7.636935750346355078 ) ) ;
#205 = PRODUCT_DEFINITION_FORMATION_WITH_SPECIFIED_SOURCE ( 'ANY', '', #215, .NOT_KNOWN. ) ;
#206 = APPROVAL_ROLE ( '' ) ;
#207 = CLOSED_SHELL ( 'NONE', ( #63, #168, #50, #95, #30 ) ) ;
#208 = PERSON_AND_ORGANIZATION_ROLE ( 'design_owner' ) ;
#209 = APPROVAL_PERSON_ORGANIZATION ( #44, #180, #206 ) ;
#210 = PERSON ( 'UNSPECIFIED', 'UNSPECIFIED', 'UNSPECIFIED', ('UNSPECIFIED'), ('UNSPECIFIED'), ('UNSPECIFIED') ) ;
#211 = EDGE_LOOP ( 'NONE', ( #196 ) ) ;
#212 = CC_DESIGN_APPROVAL ( #121, ( #36 ) ) ;
#213 = EDGE_LOOP ( 'NONE', ( #26 ) ) ;
#214 = CARTESIAN_POINT ( 'NONE',  ( 0.0000000000000000000, 0.0000000000000000000, 0.0000000000000000000 ) ) ;
#215 = PRODUCT ( '36988', '36988', '', ( #20 ) ) ;
#216 = CARTESIAN_POINT ( 'NONE',  ( 2.666421865827828373E-14, 0.7499999999999963363, 7.636935750346355078 ) ) ;
#217 = CC_DESIGN_DATE_AND_TIME_ASSIGNMENT ( #179, #130, ( #23 ) ) ;
#218 = CYLINDRICAL_SURFACE ( 'NONE', #35, 0.4399999999999979483 ) ;
#219 = CONICAL_SURFACE ( 'NONE', #203, 0.7499999999999973355, 0.5235987755982945968 ) ;
#220 = DIRECTION ( 'NONE',  ( 0.0000000000000000000, 1.000000000000000000, 0.0000000000000000000 ) ) ;
#221 = APPROVAL_PERSON_ORGANIZATION ( #149, #121, #60 ) ;
#222 = CARTESIAN_POINT ( 'NONE',  ( 2.478951750578624367E-14, 0.4399999999999972267, 7.099999999999999645 ) ) ;
#223 = CIRCLE ( 'NONE', #129, 0.4399999999999981148 ) ;
ENDSEC;
END-ISO-10303-21;
