ISO-10303-21;
HEADER;
FILE_DESCRIPTION (( 'STEP AP203' ),
    '1' );
FILE_NAME ('36983.step',
    '2021-10-07T13:47:01',
    ( '' ),
    ( '' ),
    'SwSTEP 2.0',
    'SolidWorks 2019',
    '' );
FILE_SCHEMA (( 'CONFIG_CONTROL_DESIGN' ));
ENDSEC;

DATA;
#1 = PLANE ( 'NONE',  #127 ) ;
#2 = MANIFOLD_SOLID_BREP ( 'Corps-Déplacer/Copier1[1]', #220 ) ;
#3 = DIRECTION ( 'NONE',  ( 0.0000000000000000000, 1.000000000000000000, 0.0000000000000000000 ) ) ;
#4 = DIRECTION ( 'NONE',  ( 0.0000000000000000000, -1.000000000000000000, 0.0000000000000000000 ) ) ;
#5 = CC_DESIGN_PERSON_AND_ORGANIZATION_ASSIGNMENT ( #182, #217, ( #20 ) ) ;
#6 = VERTEX_POINT ( 'NONE', #213 ) ;
#7 = APPROVAL_PERSON_ORGANIZATION ( #51, #199, #165 ) ;
#8 = MANIFOLD_SOLID_BREP ( 'Corps-Déplacer/Copier1[2]', #121 ) ;
#9 = CARTESIAN_POINT ( 'NONE',  ( 1.040461438975253740E-13, -3.649447461459112464E-15, 29.80000000000000071 ) ) ;
#10 = SECURITY_CLASSIFICATION_LEVEL ( 'unclassified' ) ;
#11 = APPROVAL_STATUS ( 'not_yet_approved' ) ;
#12 = CC_DESIGN_APPROVAL ( #169, ( #118 ) ) ;
#13 = ORIENTED_EDGE ( 'NONE', *, *, #30, .T. ) ;
#14 =( NAMED_UNIT ( * ) SI_UNIT ( $, .STERADIAN. ) SOLID_ANGLE_UNIT ( ) );
#15 = CARTESIAN_POINT ( 'NONE',  ( 0.0000000000000000000, 0.0000000000000000000, 0.0000000000000000000 ) ) ;
#16 = EDGE_LOOP ( 'NONE', ( #112 ) ) ;
#17 = PERSON_AND_ORGANIZATION ( #204, #89 ) ;
#18 = CC_DESIGN_APPROVAL ( #199, ( #20 ) ) ;
#19 = EDGE_LOOP ( 'NONE', ( #60 ) ) ;
#20 = PRODUCT_DEFINITION ( 'UNKNOWN', '', #91, #105 ) ;
#21 = PRODUCT_DEFINITION_SHAPE ( 'NONE', 'NONE',  #20 ) ;
#22 = EDGE_LOOP ( 'NONE', ( #13 ) ) ;
#23 = AXIS2_PLACEMENT_3D ( 'NONE', #9, #82, #3 ) ;
#24 = DIRECTION ( 'NONE',  ( 0.0000000000000000000, 1.000000000000000000, 0.0000000000000000000 ) ) ;
#25 = EDGE_CURVE ( 'NONE', #129, #129, #122, .T. ) ;
#26 = FACE_OUTER_BOUND ( 'NONE', #195, .T. ) ;
#27 = CONICAL_SURFACE ( 'NONE', #185, 0.7499999999999972244, 0.5235987755982930425 ) ;
#28 = CARTESIAN_POINT ( 'NONE',  ( 2.199633243471174014E-14, 3.112001549023332778E-33, 6.299999999999999822 ) ) ;
#29 = CYLINDRICAL_SURFACE ( 'NONE', #141, 0.7499999999999985567 ) ;
#30 = EDGE_CURVE ( 'NONE', #109, #109, #53, .T. ) ;
#31 = CARTESIAN_POINT ( 'NONE',  ( 2.199633243471174014E-14, 0.4149999999999978151, 6.299999999999999822 ) ) ;
#32 = DIRECTION ( 'NONE',  ( 4.275831445896959482E-31, 1.000000000000000000, 1.224646799147353454E-16 ) ) ;
#33 = DATE_AND_TIME ( #52, #192 ) ;
#34 = CARTESIAN_POINT ( 'NONE',  ( 8.706258600108967968E-16, 0.4149999999999982037, 0.2493571568964392249 ) ) ;
#35 = AXIS2_PLACEMENT_3D ( 'NONE', #145, #63, #108 ) ;
#36 = APPROVAL_STATUS ( 'not_yet_approved' ) ;
#37 = EDGE_LOOP ( 'NONE', ( #113 ) ) ;
#38 = AXIS2_PLACEMENT_3D ( 'NONE', #163, #191, #110 ) ;
#39 = SHAPE_DEFINITION_REPRESENTATION ( #21, #166 ) ;
#40 = AXIS2_PLACEMENT_3D ( 'NONE', #43, #180, #80 ) ;
#41 = ORIENTED_EDGE ( 'NONE', *, *, #156, .F. ) ;
#42 = DIRECTION ( 'NONE',  ( 0.0000000000000000000, 1.000000000000000000, 0.0000000000000000000 ) ) ;
#43 = CARTESIAN_POINT ( 'NONE',  ( 0.0000000000000000000, 0.0000000000000000000, 0.0000000000000000000 ) ) ;
#44 = FACE_OUTER_BOUND ( 'NONE', #216, .T. ) ;
#45 = CARTESIAN_POINT ( 'NONE',  ( 2.402221916401765542E-14, 0.7499999999999963363, 6.880237020535579617 ) ) ;
#46 = VERTEX_POINT ( 'NONE', #31 ) ;
#47 = DIRECTION ( 'NONE',  ( -3.491481338843133355E-15, 1.224646799147353207E-16, -1.000000000000000000 ) ) ;
#48 =( NAMED_UNIT ( * ) PLANE_ANGLE_UNIT ( ) SI_UNIT ( $, .RADIAN. ) );
#49 = EDGE_LOOP ( 'NONE', ( #54 ) ) ;
#50 = ORIENTED_EDGE ( 'NONE', *, *, #25, .F. ) ;
#51 = PERSON_AND_ORGANIZATION ( #204, #89 ) ;
#52 = CALENDAR_DATE ( 2021, 7, 10 ) ;
#53 = CIRCLE ( 'NONE', #101, 0.4149999999999985922 ) ;
#54 = ORIENTED_EDGE ( 'NONE', *, *, #209, .F. ) ;
#55 = CALENDAR_DATE ( 2021, 7, 10 ) ;
#56 = APPROVAL_DATE_TIME ( #100, #199 ) ;
#57 = APPROVAL_PERSON_ORGANIZATION ( #201, #169, #155 ) ;
#58 = CC_DESIGN_PERSON_AND_ORGANIZATION_ASSIGNMENT ( #221, #135, ( #118 ) ) ;
#59 = APPROVAL_STATUS ( 'not_yet_approved' ) ;
#60 = ORIENTED_EDGE ( 'NONE', *, *, #156, .T. ) ;
#61 = PLANE ( 'NONE',  #223 ) ;
#62 = ADVANCED_FACE ( 'NONE', ( #77, #64 ), #103, .T. ) ;
#63 = DIRECTION ( 'NONE',  ( -3.491481338843133355E-15, 1.224646799147353207E-16, -1.000000000000000000 ) ) ;
#64 = FACE_BOUND ( 'NONE', #37, .T. ) ;
#65 = FACE_OUTER_BOUND ( 'NONE', #49, .T. ) ;
#66 = DIRECTION ( 'NONE',  ( 3.491481338843133355E-15, -1.224646799147353207E-16, 1.000000000000000000 ) ) ;
#67 = APPLICATION_PROTOCOL_DEFINITION ( 'international standard', 'config_control_design', 1994, #102 ) ;
#68 = CIRCLE ( 'NONE', #107, 0.5500000000000001554 ) ;
#69 = ORIENTED_EDGE ( 'NONE', *, *, #30, .F. ) ;
#70 = PERSON_AND_ORGANIZATION_ROLE ( 'creator' ) ;
#71 = ADVANCED_FACE ( 'NONE', ( #26, #106 ), #29, .T. ) ;
#72 = PERSON_AND_ORGANIZATION ( #204, #89 ) ;
#73 = DATE_AND_TIME ( #99, #150 ) ;
#74 = APPROVAL_DATE_TIME ( #139, #169 ) ;
#75 = CONICAL_SURFACE ( 'NONE', #38, 0.4149999999999982592, 1.029744258676649871 ) ;
#76 = ADVANCED_FACE ( 'NONE', ( #208 ), #61, .T. ) ;
#77 = FACE_OUTER_BOUND ( 'NONE', #120, .T. ) ;
#78 = FACE_BOUND ( 'NONE', #16, .T. ) ;
#79 = FACE_OUTER_BOUND ( 'NONE', #125, .T. ) ;
#80 = DIRECTION ( 'NONE',  ( 4.275831445896958607E-31, 1.000000000000000000, 1.224646799147353207E-16 ) ) ;
#81 = CARTESIAN_POINT ( 'NONE',  ( 2.402221916401765542E-14, -8.425860244574019221E-16, 6.880237020535579617 ) ) ;
#82 = DIRECTION ( 'NONE',  ( -3.491481338843133355E-15, 1.224646799147353207E-16, -1.000000000000000000 ) ) ;
#83 = COORDINATED_UNIVERSAL_TIME_OFFSET ( 1, 0, .AHEAD. ) ;
#84 = PERSON_AND_ORGANIZATION ( #204, #89 ) ;
#85 = CARTESIAN_POINT ( 'NONE',  ( 2.402221916401765542E-14, -8.425860244574019221E-16, 6.880237020535579617 ) ) ;
#86 = COORDINATED_UNIVERSAL_TIME_OFFSET ( 1, 0, .AHEAD. ) ;
#87 = CIRCLE ( 'NONE', #23, 0.7500000000000000000 ) ;
#88 = EDGE_CURVE ( 'NONE', #46, #46, #197, .T. ) ;
#89 = ORGANIZATION ( 'UNSPECIFIED', 'UNSPECIFIED', '' ) ;
#90 = CARTESIAN_POINT ( 'NONE',  ( 2.199633243471174014E-14, 3.112001549023332778E-33, 6.299999999999999822 ) ) ;
#91 = PRODUCT_DEFINITION_FORMATION_WITH_SPECIFIED_SOURCE ( 'ANY', '', #172, .NOT_KNOWN. ) ;
#92 = ADVANCED_FACE ( 'NONE', ( #65, #97 ), #196, .T. ) ;
#93 = CARTESIAN_POINT ( 'NONE',  ( 2.199633243471174014E-14, -7.715274834628325378E-16, 6.299999999999999822 ) ) ;
#94 = CARTESIAN_POINT ( 'NONE',  ( 1.047444401652940007E-13, -3.673940397442059178E-15, 30.00000000000000000 ) ) ;
#95 = APPLICATION_CONTEXT ( 'configuration controlled 3d designs of mechanical parts and assemblies' ) ;
#96 = VERTEX_POINT ( 'NONE', #162 ) ;
#97 = FACE_OUTER_BOUND ( 'NONE', #22, .T. ) ;
#98 = ORIENTED_EDGE ( 'NONE', *, *, #88, .T. ) ;
#99 = CALENDAR_DATE ( 2021, 7, 10 ) ;
#100 = DATE_AND_TIME ( #55, #207 ) ;
#101 = AXIS2_PLACEMENT_3D ( 'NONE', #104, #176, #24 ) ;
#102 = APPLICATION_CONTEXT ( 'configuration controlled 3d designs of mechanical parts and assemblies' ) ;
#103 = CONICAL_SURFACE ( 'NONE', #181, 0.5500000000000001554, 0.7853981633974510546 ) ;
#104 = CARTESIAN_POINT ( 'NONE',  ( 2.199633243471174014E-14, -7.715274834628325378E-16, 6.299999999999999822 ) ) ;
#105 = DESIGN_CONTEXT ( 'detailed design', #102, 'design' ) ;
#106 = FACE_OUTER_BOUND ( 'NONE', #19, .T. ) ;
#107 = AXIS2_PLACEMENT_3D ( 'NONE', #94, #147, #177 ) ;
#108 = DIRECTION ( 'NONE',  ( 4.275831445896958607E-31, 1.000000000000000000, 1.224646799147353207E-16 ) ) ;
#109 = VERTEX_POINT ( 'NONE', #179 ) ;
#110 = DIRECTION ( 'NONE',  ( -4.640795046716250798E-31, -1.000000000000000000, -1.306267677693384417E-16 ) ) ;
#111 = CARTESIAN_POINT ( 'NONE',  ( 1.047444401652940007E-13, -3.673940397442059178E-15, 30.00000000000000000 ) ) ;
#112 = ORIENTED_EDGE ( 'NONE', *, *, #88, .F. ) ;
#113 = ORIENTED_EDGE ( 'NONE', *, *, #119, .T. ) ;
#114 = DATE_TIME_ROLE ( 'creation_date' ) ;
#115 = APPROVAL_DATE_TIME ( #33, #116 ) ;
#116 = APPROVAL ( #11, 'UNSPECIFIED' ) ;
#117 = ORIENTED_EDGE ( 'NONE', *, *, #25, .T. ) ;
#118 = SECURITY_CLASSIFICATION ( '', '', #10 ) ;
#119 = EDGE_CURVE ( 'NONE', #96, #96, #68, .T. ) ;
#120 = EDGE_LOOP ( 'NONE', ( #41 ) ) ;
#121 = CLOSED_SHELL ( 'NONE', ( #123, #92, #76 ) ) ;
#122 = CIRCLE ( 'NONE', #137, 0.7499999999999972244 ) ;
#123 = ADVANCED_FACE ( 'NONE', ( #158 ), #75, .T. ) ;
#124 = DIRECTION ( 'NONE',  ( 0.0000000000000000000, 1.000000000000000000, 0.0000000000000000000 ) ) ;
#125 = EDGE_LOOP ( 'NONE', ( #98 ) ) ;
#126 = CARTESIAN_POINT ( 'NONE',  ( 0.0000000000000000000, 0.0000000000000000000, 0.0000000000000000000 ) ) ;
#127 = AXIS2_PLACEMENT_3D ( 'NONE', #28, #66, #160 ) ;
#128 = DIRECTION ( 'NONE',  ( -4.275831445896958607E-31, -1.000000000000000000, -1.224646799147353207E-16 ) ) ;
#129 = VERTEX_POINT ( 'NONE', #45 ) ;
#130 = DIRECTION ( 'NONE',  ( 4.640795046716250798E-31, 1.000000000000000000, 1.306267677693384417E-16 ) ) ;
#131 = ORIENTED_EDGE ( 'NONE', *, *, #119, .F. ) ;
#132 = CC_DESIGN_PERSON_AND_ORGANIZATION_ASSIGNMENT ( #84, #70, ( #91 ) ) ;
#133 = EDGE_LOOP ( 'NONE', ( #69 ) ) ;
#134 = DIRECTION ( 'NONE',  ( 0.0000000000000000000, 0.0000000000000000000, 1.000000000000000000 ) ) ;
#135 = PERSON_AND_ORGANIZATION_ROLE ( 'classification_officer' ) ;
#136 = ADVANCED_FACE ( 'NONE', ( #79 ), #1, .F. ) ;
#137 = AXIS2_PLACEMENT_3D ( 'NONE', #85, #206, #42 ) ;
#138 = DATE_TIME_ROLE ( 'classification_date' ) ;
#139 = DATE_AND_TIME ( #222, #175 ) ;
#140 = CC_DESIGN_PERSON_AND_ORGANIZATION_ASSIGNMENT ( #184, #152, ( #91 ) ) ;
#141 = AXIS2_PLACEMENT_3D ( 'NONE', #126, #142, #32 ) ;
#142 = DIRECTION ( 'NONE',  ( -3.491481338843133355E-15, 1.224646799147353207E-16, -1.000000000000000000 ) ) ;
#143 = ORIENTED_EDGE ( 'NONE', *, *, #209, .T. ) ;
#144 = DIRECTION ( 'NONE',  ( 3.491481338843133355E-15, -1.224646799147353207E-16, 1.000000000000000000 ) ) ;
#145 = CARTESIAN_POINT ( 'NONE',  ( 1.047444401652940007E-13, 4.124339402320053683E-33, 30.00000000000000000 ) ) ;
#146 = APPROVAL_PERSON_ORGANIZATION ( #17, #116, #153 ) ;
#147 = DIRECTION ( 'NONE',  ( -3.491481338843133355E-15, 1.224646799147353207E-16, -1.000000000000000000 ) ) ;
#148 = PLANE ( 'NONE',  #35 ) ;
#149 = PERSON_AND_ORGANIZATION_ROLE ( 'design_owner' ) ;
#150 = LOCAL_TIME ( 15, 47, 1.000000000000000000, #186 ) ;
#151 = VERTEX_POINT ( 'NONE', #34 ) ;
#152 = PERSON_AND_ORGANIZATION_ROLE ( 'design_supplier' ) ;
#153 = APPROVAL_ROLE ( '' ) ;
#154 = AXIS2_PLACEMENT_3D ( 'NONE', #211, #194, #130 ) ;
#155 = APPROVAL_ROLE ( '' ) ;
#156 = EDGE_CURVE ( 'NONE', #6, #6, #87, .T. ) ;
#157 = EDGE_LOOP ( 'NONE', ( #131 ) ) ;
#158 = FACE_OUTER_BOUND ( 'NONE', #171, .T. ) ;
#159 = AXIS2_PLACEMENT_3D ( 'NONE', #15, #134, #200 ) ;
#160 = DIRECTION ( 'NONE',  ( -4.275831445896958607E-31, -1.000000000000000000, -1.224646799147353207E-16 ) ) ;
#161 = DIRECTION ( 'NONE',  ( 0.0000000000000000000, 1.000000000000000000, 0.0000000000000000000 ) ) ;
#162 = CARTESIAN_POINT ( 'NONE',  ( 1.047444401652940007E-13, 0.5499999999999964917, 30.00000000000000000 ) ) ;
#163 = CARTESIAN_POINT ( 'NONE',  ( 8.706258600108965996E-16, -3.053744440377085755E-17, 0.2493571568964391694 ) ) ;
#164 = ADVANCED_FACE ( 'NONE', ( #78, #44 ), #27, .T. ) ;
#165 = APPROVAL_ROLE ( '' ) ;
#166 = ADVANCED_BREP_SHAPE_REPRESENTATION ( '36983', ( #2, #8, #159 ), #189 ) ;
#167 = CC_DESIGN_SECURITY_CLASSIFICATION ( #118, ( #91 ) ) ;
#168 = CALENDAR_DATE ( 2021, 7, 10 ) ;
#169 = APPROVAL ( #59, 'UNSPECIFIED' ) ;
#170 = DATE_AND_TIME ( #168, #187 ) ;
#171 = EDGE_LOOP ( 'NONE', ( #143 ) ) ;
#172 = PRODUCT ( '36983', '36983', '', ( #218 ) ) ;
#173 = CC_DESIGN_DATE_AND_TIME_ASSIGNMENT ( #170, #114, ( #20 ) ) ;
#174 = COORDINATED_UNIVERSAL_TIME_OFFSET ( 1, 0, .AHEAD. ) ;
#175 = LOCAL_TIME ( 15, 47, 1.000000000000000000, #174 ) ;
#176 = DIRECTION ( 'NONE',  ( -3.491481338843133355E-15, 1.224646799147353207E-16, -1.000000000000000000 ) ) ;
#177 = DIRECTION ( 'NONE',  ( 0.0000000000000000000, 1.000000000000000000, 0.0000000000000000000 ) ) ;
#178 = AXIS2_PLACEMENT_3D ( 'NONE', #93, #47, #124 ) ;
#179 = CARTESIAN_POINT ( 'NONE',  ( 2.199633243471174014E-14, 0.4149999999999978151, 6.299999999999999822 ) ) ;
#180 = DIRECTION ( 'NONE',  ( -3.491481338843133355E-15, 1.224646799147353207E-16, -1.000000000000000000 ) ) ;
#181 = AXIS2_PLACEMENT_3D ( 'NONE', #111, #214, #161 ) ;
#182 = PERSON_AND_ORGANIZATION ( #204, #89 ) ;
#183 = ADVANCED_FACE ( 'NONE', ( #210 ), #148, .F. ) ;
#184 = PERSON_AND_ORGANIZATION ( #204, #89 ) ;
#185 = AXIS2_PLACEMENT_3D ( 'NONE', #81, #144, #4 ) ;
#186 = COORDINATED_UNIVERSAL_TIME_OFFSET ( 1, 0, .AHEAD. ) ;
#187 = LOCAL_TIME ( 15, 47, 1.000000000000000000, #83 ) ;
#188 = PRODUCT_RELATED_PRODUCT_CATEGORY ( 'detail', '', ( #172 ) ) ;
#189 =( GEOMETRIC_REPRESENTATION_CONTEXT ( 3 ) GLOBAL_UNCERTAINTY_ASSIGNED_CONTEXT ( ( #190 ) ) GLOBAL_UNIT_ASSIGNED_CONTEXT ( ( #219, #48, #14 ) ) REPRESENTATION_CONTEXT ( 'NONE', 'WORKASPACE' ) );
#190 = UNCERTAINTY_MEASURE_WITH_UNIT (LENGTH_MEASURE( 1.000000000000000082E-05 ), #219, 'distance_accuracy_value', 'NONE');
#191 = DIRECTION ( 'NONE',  ( 3.491481338843133355E-15, -1.224646799147353207E-16, 1.000000000000000000 ) ) ;
#192 = LOCAL_TIME ( 15, 47, 1.000000000000000000, #86 ) ;
#193 = DIRECTION ( 'NONE',  ( 3.491481338843133355E-15, -1.224646799147353207E-16, 1.000000000000000000 ) ) ;
#194 = DIRECTION ( 'NONE',  ( -3.491481338843133355E-15, 1.224646799147353207E-16, -1.000000000000000000 ) ) ;
#195 = EDGE_LOOP ( 'NONE', ( #50 ) ) ;
#196 = CYLINDRICAL_SURFACE ( 'NONE', #40, 0.4149999999999984257 ) ;
#197 = CIRCLE ( 'NONE', #178, 0.4149999999999985922 ) ;
#198 = APPLICATION_PROTOCOL_DEFINITION ( 'international standard', 'config_control_design', 1994, #95 ) ;
#199 = APPROVAL ( #36, 'UNSPECIFIED' ) ;
#200 = DIRECTION ( 'NONE',  ( 1.000000000000000000, 0.0000000000000000000, 0.0000000000000000000 ) ) ;
#201 = PERSON_AND_ORGANIZATION ( #204, #89 ) ;
#202 = COORDINATED_UNIVERSAL_TIME_OFFSET ( 1, 0, .AHEAD. ) ;
#203 = CIRCLE ( 'NONE', #154, 0.4149999999999982592 ) ;
#204 = PERSON ( 'UNSPECIFIED', 'UNSPECIFIED', 'UNSPECIFIED', ('UNSPECIFIED'), ('UNSPECIFIED'), ('UNSPECIFIED') ) ;
#205 = CC_DESIGN_DATE_AND_TIME_ASSIGNMENT ( #73, #138, ( #118 ) ) ;
#206 = DIRECTION ( 'NONE',  ( -3.491481338843133355E-15, 1.224646799147353207E-16, -1.000000000000000000 ) ) ;
#207 = LOCAL_TIME ( 15, 47, 1.000000000000000000, #202 ) ;
#208 = FACE_OUTER_BOUND ( 'NONE', #133, .T. ) ;
#209 = EDGE_CURVE ( 'NONE', #151, #151, #203, .T. ) ;
#210 = FACE_OUTER_BOUND ( 'NONE', #157, .T. ) ;
#211 = CARTESIAN_POINT ( 'NONE',  ( 8.706258600108965996E-16, -3.053744440377085755E-17, 0.2493571568964391694 ) ) ;
#212 = CC_DESIGN_PERSON_AND_ORGANIZATION_ASSIGNMENT ( #72, #149, ( #172 ) ) ;
#213 = CARTESIAN_POINT ( 'NONE',  ( 1.040461438975253740E-13, 0.7499999999999963363, 29.80000000000000071 ) ) ;
#214 = DIRECTION ( 'NONE',  ( -3.491481338843133355E-15, 1.224646799147353207E-16, -1.000000000000000000 ) ) ;
#215 = CC_DESIGN_APPROVAL ( #116, ( #91 ) ) ;
#216 = EDGE_LOOP ( 'NONE', ( #117 ) ) ;
#217 = PERSON_AND_ORGANIZATION_ROLE ( 'creator' ) ;
#218 = MECHANICAL_CONTEXT ( 'NONE', #95, 'mechanical' ) ;
#219 =( LENGTH_UNIT ( ) NAMED_UNIT ( * ) SI_UNIT ( .MILLI., .METRE. ) );
#220 = CLOSED_SHELL ( 'NONE', ( #136, #164, #71, #62, #183 ) ) ;
#221 = PERSON_AND_ORGANIZATION ( #204, #89 ) ;
#222 = CALENDAR_DATE ( 2021, 7, 10 ) ;
#223 = AXIS2_PLACEMENT_3D ( 'NONE', #90, #193, #128 ) ;
ENDSEC;
END-ISO-10303-21;
