ISO-10303-21;
HEADER;
FILE_DESCRIPTION (( 'STEP AP203' ),
    '1' );
FILE_NAME ('36982.step',
    '2021-10-07T13:47:00',
    ( '' ),
    ( '' ),
    'SwSTEP 2.0',
    'SolidWorks 2019',
    '' );
FILE_SCHEMA (( 'CONFIG_CONTROL_DESIGN' ));
ENDSEC;

DATA;
#1 = DIRECTION ( 'NONE',  ( 4.275831445896958607E-31, 1.000000000000000000, 1.224646799147353207E-16 ) ) ;
#2 = FACE_OUTER_BOUND ( 'NONE', #22, .T. ) ;
#3 = PLANE ( 'NONE',  #79 ) ;
#4 = DIRECTION ( 'NONE',  ( -3.491481338843133355E-15, 1.224646799147353207E-16, -1.000000000000000000 ) ) ;
#5 = FACE_OUTER_BOUND ( 'NONE', #130, .T. ) ;
#6 = ADVANCED_FACE ( 'NONE', ( #126, #176 ), #142, .T. ) ;
#7 = PLANE ( 'NONE',  #215 ) ;
#8 = ORIENTED_EDGE ( 'NONE', *, *, #155, .T. ) ;
#9 = LOCAL_TIME ( 15, 47, 0.0000000000000000000, #51 ) ;
#10 = UNCERTAINTY_MEASURE_WITH_UNIT (LENGTH_MEASURE( 1.000000000000000082E-05 ), #50, 'distance_accuracy_value', 'NONE');
#11 = EDGE_CURVE ( 'NONE', #183, #183, #196, .T. ) ;
#12 = APPROVAL_ROLE ( '' ) ;
#13 = ORGANIZATION ( 'UNSPECIFIED', 'UNSPECIFIED', '' ) ;
#14 = AXIS2_PLACEMENT_3D ( 'NONE', #191, #57, #145 ) ;
#15 = APPROVAL_STATUS ( 'not_yet_approved' ) ;
#16 = AXIS2_PLACEMENT_3D ( 'NONE', #157, #91, #141 ) ;
#17 = ADVANCED_FACE ( 'NONE', ( #97 ), #59, .T. ) ;
#18 = DATE_AND_TIME ( #86, #52 ) ;
#19 = EDGE_LOOP ( 'NONE', ( #198 ) ) ;
#20 = DIRECTION ( 'NONE',  ( -3.491481338843133355E-15, 1.224646799147353207E-16, -1.000000000000000000 ) ) ;
#21 = FACE_OUTER_BOUND ( 'NONE', #164, .T. ) ;
#22 = EDGE_LOOP ( 'NONE', ( #8 ) ) ;
#23 = CARTESIAN_POINT ( 'NONE',  ( 0.0000000000000000000, 0.0000000000000000000, 0.0000000000000000000 ) ) ;
#24 = DIRECTION ( 'NONE',  ( 4.275831445896958607E-31, 1.000000000000000000, 1.224646799147353207E-16 ) ) ;
#25 = ADVANCED_FACE ( 'NONE', ( #5, #21 ), #75, .T. ) ;
#26 = DATE_AND_TIME ( #179, #9 ) ;
#27 = LOCAL_TIME ( 15, 47, 0.0000000000000000000, #172 ) ;
#28 = PERSON_AND_ORGANIZATION ( #177, #13 ) ;
#29 = PRODUCT ( '36982', '36982', '', ( #112 ) ) ;
#30 = CONICAL_SURFACE ( 'NONE', #63, 0.5500000000000001554, 0.7853981633974510546 ) ;
#31 = PERSON_AND_ORGANIZATION ( #177, #13 ) ;
#32 = DATE_AND_TIME ( #104, #27 ) ;
#33 = EDGE_CURVE ( 'NONE', #149, #149, #128, .T. ) ;
#34 = AXIS2_PLACEMENT_3D ( 'NONE', #159, #209, #55 ) ;
#35 = SECURITY_CLASSIFICATION_LEVEL ( 'unclassified' ) ;
#36 = EDGE_CURVE ( 'NONE', #147, #147, #222, .T. ) ;
#37 = DIRECTION ( 'NONE',  ( 0.0000000000000000000, 1.000000000000000000, 0.0000000000000000000 ) ) ;
#38 = DIRECTION ( 'NONE',  ( 0.0000000000000000000, 1.000000000000000000, 0.0000000000000000000 ) ) ;
#39 = DIRECTION ( 'NONE',  ( 4.697390108261570962E-31, 1.000000000000000000, 1.322197771323791553E-16 ) ) ;
#40 = EDGE_LOOP ( 'NONE', ( #175 ) ) ;
#41 = APPROVAL ( #168, 'UNSPECIFIED' ) ;
#42 = FACE_OUTER_BOUND ( 'NONE', #40, .T. ) ;
#43 = ORIENTED_EDGE ( 'NONE', *, *, #78, .F. ) ;
#44 = DIRECTION ( 'NONE',  ( 3.491481338843133355E-15, -1.224646799147353207E-16, 1.000000000000000000 ) ) ;
#45 = ORIENTED_EDGE ( 'NONE', *, *, #119, .T. ) ;
#46 = EDGE_LOOP ( 'NONE', ( #45 ) ) ;
#47 = DIRECTION ( 'NONE',  ( 0.0000000000000000000, -1.000000000000000000, 0.0000000000000000000 ) ) ;
#48 = CARTESIAN_POINT ( 'NONE',  ( 2.199633243471174014E-14, 0.4099999999999980327, 6.299999999999999822 ) ) ;
#49 = AXIS2_PLACEMENT_3D ( 'NONE', #181, #44, #132 ) ;
#50 =( LENGTH_UNIT ( ) NAMED_UNIT ( * ) SI_UNIT ( .MILLI., .METRE. ) );
#51 = COORDINATED_UNIVERSAL_TIME_OFFSET ( 1, 0, .AHEAD. ) ;
#52 = LOCAL_TIME ( 15, 47, 0.0000000000000000000, #116 ) ;
#53 = PERSON_AND_ORGANIZATION ( #177, #13 ) ;
#54 = DIRECTION ( 'NONE',  ( -3.491481338843133355E-15, 1.224646799147353207E-16, -1.000000000000000000 ) ) ;
#55 = DIRECTION ( 'NONE',  ( 0.0000000000000000000, 1.000000000000000000, 0.0000000000000000000 ) ) ;
#56 = LOCAL_TIME ( 15, 47, 0.0000000000000000000, #169 ) ;
#57 = DIRECTION ( 'NONE',  ( -3.491481338843133355E-15, 1.224646799147353207E-16, -1.000000000000000000 ) ) ;
#58 = APPROVAL ( #72, 'UNSPECIFIED' ) ;
#59 = PLANE ( 'NONE',  #135 ) ;
#60 = CARTESIAN_POINT ( 'NONE',  ( 8.601363918179943165E-16, -3.016952338685795098E-17, 0.2463528538013013414 ) ) ;
#61 = ORIENTED_EDGE ( 'NONE', *, *, #36, .F. ) ;
#62 = CARTESIAN_POINT ( 'NONE',  ( 2.405245627938043046E-14, 0.7499999999999963363, 6.888897274573423601 ) ) ;
#63 = AXIS2_PLACEMENT_3D ( 'NONE', #122, #54, #38 ) ;
#64 = DIRECTION ( 'NONE',  ( 0.0000000000000000000, 0.0000000000000000000, 1.000000000000000000 ) ) ;
#65 = DESIGN_CONTEXT ( 'detailed design', #208, 'design' ) ;
#66 =( NAMED_UNIT ( * ) PLANE_ANGLE_UNIT ( ) SI_UNIT ( $, .RADIAN. ) );
#67 = CIRCLE ( 'NONE', #14, 0.7500000000000000000 ) ;
#68 = CARTESIAN_POINT ( 'NONE',  ( 2.199633243471174014E-14, 0.4099999999999980327, 6.299999999999999822 ) ) ;
#69 = LOCAL_TIME ( 15, 47, 0.0000000000000000000, #83 ) ;
#70 = PERSON_AND_ORGANIZATION ( #177, #13 ) ;
#71 = MANIFOLD_SOLID_BREP ( 'Corps-Déplacer/Copier1[2]', #109 ) ;
#72 = APPROVAL_STATUS ( 'not_yet_approved' ) ;
#73 = EDGE_LOOP ( 'NONE', ( #43 ) ) ;
#74 = CLOSED_SHELL ( 'NONE', ( #193, #174, #25, #95, #131 ) ) ;
#75 = CYLINDRICAL_SURFACE ( 'NONE', #158, 0.7499999999999985567 ) ;
#76 = CARTESIAN_POINT ( 'NONE',  ( 2.405245627938043046E-14, -8.436465996961267691E-16, 6.888897274573423601 ) ) ;
#77 = ORIENTED_EDGE ( 'NONE', *, *, #33, .T. ) ;
#78 = EDGE_CURVE ( 'NONE', #150, #150, #67, .T. ) ;
#79 = AXIS2_PLACEMENT_3D ( 'NONE', #110, #20, #1 ) ;
#80 = EDGE_LOOP ( 'NONE', ( #146 ) ) ;
#81 = DIRECTION ( 'NONE',  ( 4.275831445896959482E-31, 1.000000000000000000, 1.224646799147353454E-16 ) ) ;
#82 = VERTEX_POINT ( 'NONE', #214 ) ;
#83 = COORDINATED_UNIVERSAL_TIME_OFFSET ( 1, 0, .AHEAD. ) ;
#84 = CARTESIAN_POINT ( 'NONE',  ( 2.199633243471174014E-14, 3.074507554456787432E-33, 6.299999999999999822 ) ) ;
#85 = PRODUCT_RELATED_PRODUCT_CATEGORY ( 'detail', '', ( #29 ) ) ;
#86 = CALENDAR_DATE ( 2021, 7, 10 ) ;
#87 = SHAPE_DEFINITION_REPRESENTATION ( #220, #187 ) ;
#88 = CC_DESIGN_APPROVAL ( #41, ( #101 ) ) ;
#89 = APPROVAL_DATE_TIME ( #186, #153 ) ;
#90 = CC_DESIGN_DATE_AND_TIME_ASSIGNMENT ( #32, #223, ( #211 ) ) ;
#91 = DIRECTION ( 'NONE',  ( -3.491481338843133355E-15, 1.224646799147353207E-16, -1.000000000000000000 ) ) ;
#92 = AXIS2_PLACEMENT_3D ( 'NONE', #76, #107, #47 ) ;
#93 = FACE_BOUND ( 'NONE', #173, .T. ) ;
#94 = CARTESIAN_POINT ( 'NONE',  ( 2.199633243471174014E-14, 3.074507554456787432E-33, 6.299999999999999822 ) ) ;
#95 = ADVANCED_FACE ( 'NONE', ( #124, #194 ), #30, .T. ) ;
#96 = DIRECTION ( 'NONE',  ( 3.491481338843133355E-15, -1.224646799147353207E-16, 1.000000000000000000 ) ) ;
#97 = FACE_OUTER_BOUND ( 'NONE', #105, .T. ) ;
#98 =( NAMED_UNIT ( * ) SI_UNIT ( $, .STERADIAN. ) SOLID_ANGLE_UNIT ( ) );
#99 = PERSON_AND_ORGANIZATION ( #177, #13 ) ;
#100 = CIRCLE ( 'NONE', #123, 0.7499999999999972244 ) ;
#101 = PRODUCT_DEFINITION ( 'UNKNOWN', '', #102, #65 ) ;
#102 = PRODUCT_DEFINITION_FORMATION_WITH_SPECIFIED_SOURCE ( 'ANY', '', #29, .NOT_KNOWN. ) ;
#103 = PERSON_AND_ORGANIZATION ( #177, #13 ) ;
#104 = CALENDAR_DATE ( 2021, 7, 10 ) ;
#105 = EDGE_LOOP ( 'NONE', ( #61 ) ) ;
#106 = DIRECTION ( 'NONE',  ( -3.491481338843133355E-15, 1.224646799147353207E-16, -1.000000000000000000 ) ) ;
#107 = DIRECTION ( 'NONE',  ( 3.491481338843133355E-15, -1.224646799147353207E-16, 1.000000000000000000 ) ) ;
#108 = ORIENTED_EDGE ( 'NONE', *, *, #119, .F. ) ;
#109 = CLOSED_SHELL ( 'NONE', ( #206, #6, #17 ) ) ;
#110 = CARTESIAN_POINT ( 'NONE',  ( 1.047444401652940007E-13, 4.124339402320053683E-33, 30.00000000000000000 ) ) ;
#111 = ORIENTED_EDGE ( 'NONE', *, *, #11, .F. ) ;
#112 = MECHANICAL_CONTEXT ( 'NONE', #133, 'mechanical' ) ;
#113 = VERTEX_POINT ( 'NONE', #62 ) ;
#114 = CC_DESIGN_SECURITY_CLASSIFICATION ( #211, ( #102 ) ) ;
#115 = CC_DESIGN_PERSON_AND_ORGANIZATION_ASSIGNMENT ( #163, #202, ( #101 ) ) ;
#116 = COORDINATED_UNIVERSAL_TIME_OFFSET ( 1, 0, .AHEAD. ) ;
#117 = CONICAL_SURFACE ( 'NONE', #49, 0.4099999999999982547, 1.029744258676649871 ) ;
#118 = APPROVAL_ROLE ( '' ) ;
#119 = EDGE_CURVE ( 'NONE', #82, #82, #185, .T. ) ;
#120 = AXIS2_PLACEMENT_3D ( 'NONE', #165, #64, #134 ) ;
#121 = CARTESIAN_POINT ( 'NONE',  ( 2.405245627938043046E-14, -8.436465996961267691E-16, 6.888897274573423601 ) ) ;
#122 = CARTESIAN_POINT ( 'NONE',  ( 1.047444401652940007E-13, -3.673940397442059178E-15, 30.00000000000000000 ) ) ;
#123 = AXIS2_PLACEMENT_3D ( 'NONE', #121, #190, #37 ) ;
#124 = FACE_OUTER_BOUND ( 'NONE', #73, .T. ) ;
#125 = DIRECTION ( 'NONE',  ( -3.491481338843133355E-15, 1.224646799147353207E-16, -1.000000000000000000 ) ) ;
#126 = FACE_OUTER_BOUND ( 'NONE', #210, .T. ) ;
#127 = CC_DESIGN_PERSON_AND_ORGANIZATION_ASSIGNMENT ( #53, #170, ( #102 ) ) ;
#128 = CIRCLE ( 'NONE', #34, 0.5500000000000001554 ) ;
#129 = CARTESIAN_POINT ( 'NONE',  ( 1.040461438975253740E-13, 0.7499999999999963363, 29.80000000000000071 ) ) ;
#130 = EDGE_LOOP ( 'NONE', ( #212 ) ) ;
#131 = ADVANCED_FACE ( 'NONE', ( #42 ), #3, .F. ) ;
#132 = DIRECTION ( 'NONE',  ( -4.697390108261570962E-31, -1.000000000000000000, -1.322197771323791553E-16 ) ) ;
#133 = APPLICATION_CONTEXT ( 'configuration controlled 3d designs of mechanical parts and assemblies' ) ;
#134 = DIRECTION ( 'NONE',  ( 1.000000000000000000, 0.0000000000000000000, 0.0000000000000000000 ) ) ;
#135 = AXIS2_PLACEMENT_3D ( 'NONE', #94, #96, #162 ) ;
#136 = DATE_AND_TIME ( #166, #69 ) ;
#137 = CALENDAR_DATE ( 2021, 7, 10 ) ;
#138 = CC_DESIGN_DATE_AND_TIME_ASSIGNMENT ( #26, #204, ( #101 ) ) ;
#139 = PERSON_AND_ORGANIZATION_ROLE ( 'classification_officer' ) ;
#140 = APPROVAL_PERSON_ORGANIZATION ( #28, #41, #12 ) ;
#141 = DIRECTION ( 'NONE',  ( 0.0000000000000000000, 1.000000000000000000, 0.0000000000000000000 ) ) ;
#142 = CYLINDRICAL_SURFACE ( 'NONE', #171, 0.4099999999999985323 ) ;
#143 = CONICAL_SURFACE ( 'NONE', #92, 0.7499999999999972244, 0.5235987755982929315 ) ;
#144 = CARTESIAN_POINT ( 'NONE',  ( 0.0000000000000000000, 0.0000000000000000000, 0.0000000000000000000 ) ) ;
#145 = DIRECTION ( 'NONE',  ( 0.0000000000000000000, 1.000000000000000000, 0.0000000000000000000 ) ) ;
#146 = ORIENTED_EDGE ( 'NONE', *, *, #36, .T. ) ;
#147 = VERTEX_POINT ( 'NONE', #48 ) ;
#148 = APPROVAL_PERSON_ORGANIZATION ( #103, #58, #118 ) ;
#149 = VERTEX_POINT ( 'NONE', #199 ) ;
#150 = VERTEX_POINT ( 'NONE', #129 ) ;
#151 = AXIS2_PLACEMENT_3D ( 'NONE', #160, #4, #178 ) ;
#152 = APPROVAL_ROLE ( '' ) ;
#153 = APPROVAL ( #15, 'UNSPECIFIED' ) ;
#154 = APPROVAL_PERSON_ORGANIZATION ( #156, #153, #152 ) ;
#155 = EDGE_CURVE ( 'NONE', #113, #113, #100, .T. ) ;
#156 = PERSON_AND_ORGANIZATION ( #177, #13 ) ;
#157 = CARTESIAN_POINT ( 'NONE',  ( 2.199633243471174014E-14, -7.715274834628325378E-16, 6.299999999999999822 ) ) ;
#158 = AXIS2_PLACEMENT_3D ( 'NONE', #144, #125, #81 ) ;
#159 = CARTESIAN_POINT ( 'NONE',  ( 1.047444401652940007E-13, -3.673940397442059178E-15, 30.00000000000000000 ) ) ;
#160 = CARTESIAN_POINT ( 'NONE',  ( 2.199633243471174014E-14, -7.715274834628325378E-16, 6.299999999999999822 ) ) ;
#161 = CC_DESIGN_PERSON_AND_ORGANIZATION_ASSIGNMENT ( #70, #139, ( #211 ) ) ;
#162 = DIRECTION ( 'NONE',  ( -4.275831445896958607E-31, -1.000000000000000000, -1.224646799147353207E-16 ) ) ;
#163 = PERSON_AND_ORGANIZATION ( #177, #13 ) ;
#164 = EDGE_LOOP ( 'NONE', ( #213 ) ) ;
#165 = CARTESIAN_POINT ( 'NONE',  ( 0.0000000000000000000, 0.0000000000000000000, 0.0000000000000000000 ) ) ;
#166 = CALENDAR_DATE ( 2021, 7, 10 ) ;
#167 = DIRECTION ( 'NONE',  ( -4.275831445896958607E-31, -1.000000000000000000, -1.224646799147353207E-16 ) ) ;
#168 = APPROVAL_STATUS ( 'not_yet_approved' ) ;
#169 = COORDINATED_UNIVERSAL_TIME_OFFSET ( 1, 0, .AHEAD. ) ;
#170 = PERSON_AND_ORGANIZATION_ROLE ( 'design_supplier' ) ;
#171 = AXIS2_PLACEMENT_3D ( 'NONE', #23, #195, #24 ) ;
#172 = COORDINATED_UNIVERSAL_TIME_OFFSET ( 1, 0, .AHEAD. ) ;
#173 = EDGE_LOOP ( 'NONE', ( #111 ) ) ;
#174 = ADVANCED_FACE ( 'NONE', ( #93, #2 ), #143, .T. ) ;
#175 = ORIENTED_EDGE ( 'NONE', *, *, #33, .F. ) ;
#176 = FACE_OUTER_BOUND ( 'NONE', #80, .T. ) ;
#177 = PERSON ( 'UNSPECIFIED', 'UNSPECIFIED', 'UNSPECIFIED', ('UNSPECIFIED'), ('UNSPECIFIED'), ('UNSPECIFIED') ) ;
#178 = DIRECTION ( 'NONE',  ( 0.0000000000000000000, 1.000000000000000000, 0.0000000000000000000 ) ) ;
#179 = CALENDAR_DATE ( 2021, 7, 10 ) ;
#180 = FACE_OUTER_BOUND ( 'NONE', #19, .T. ) ;
#181 = CARTESIAN_POINT ( 'NONE',  ( 8.601363918179943165E-16, -3.016952338685795098E-17, 0.2463528538013013414 ) ) ;
#182 = CC_DESIGN_APPROVAL ( #153, ( #211 ) ) ;
#183 = VERTEX_POINT ( 'NONE', #68 ) ;
#184 = PERSON_AND_ORGANIZATION_ROLE ( 'design_owner' ) ;
#185 = CIRCLE ( 'NONE', #203, 0.4099999999999982547 ) ;
#186 = DATE_AND_TIME ( #137, #56 ) ;
#187 = ADVANCED_BREP_SHAPE_REPRESENTATION ( '36982', ( #221, #71, #120 ), #189 ) ;
#188 = PERSON_AND_ORGANIZATION_ROLE ( 'creator' ) ;
#189 =( GEOMETRIC_REPRESENTATION_CONTEXT ( 3 ) GLOBAL_UNCERTAINTY_ASSIGNED_CONTEXT ( ( #10 ) ) GLOBAL_UNIT_ASSIGNED_CONTEXT ( ( #50, #66, #98 ) ) REPRESENTATION_CONTEXT ( 'NONE', 'WORKASPACE' ) );
#190 = DIRECTION ( 'NONE',  ( -3.491481338843133355E-15, 1.224646799147353207E-16, -1.000000000000000000 ) ) ;
#191 = CARTESIAN_POINT ( 'NONE',  ( 1.040461438975253740E-13, -3.649447461459112464E-15, 29.80000000000000071 ) ) ;
#192 = CC_DESIGN_APPROVAL ( #58, ( #102 ) ) ;
#193 = ADVANCED_FACE ( 'NONE', ( #180 ), #7, .F. ) ;
#194 = FACE_BOUND ( 'NONE', #207, .T. ) ;
#195 = DIRECTION ( 'NONE',  ( -3.491481338843133355E-15, 1.224646799147353207E-16, -1.000000000000000000 ) ) ;
#196 = CIRCLE ( 'NONE', #151, 0.4099999999999988098 ) ;
#197 = APPLICATION_PROTOCOL_DEFINITION ( 'international standard', 'config_control_design', 1994, #208 ) ;
#198 = ORIENTED_EDGE ( 'NONE', *, *, #11, .T. ) ;
#199 = CARTESIAN_POINT ( 'NONE',  ( 1.047444401652940007E-13, 0.5499999999999964917, 30.00000000000000000 ) ) ;
#200 = APPLICATION_PROTOCOL_DEFINITION ( 'international standard', 'config_control_design', 1994, #133 ) ;
#201 = CC_DESIGN_PERSON_AND_ORGANIZATION_ASSIGNMENT ( #31, #188, ( #102 ) ) ;
#202 = PERSON_AND_ORGANIZATION_ROLE ( 'creator' ) ;
#203 = AXIS2_PLACEMENT_3D ( 'NONE', #60, #106, #39 ) ;
#204 = DATE_TIME_ROLE ( 'creation_date' ) ;
#205 = APPROVAL_DATE_TIME ( #18, #58 ) ;
#206 = ADVANCED_FACE ( 'NONE', ( #219 ), #117, .T. ) ;
#207 = EDGE_LOOP ( 'NONE', ( #77 ) ) ;
#208 = APPLICATION_CONTEXT ( 'configuration controlled 3d designs of mechanical parts and assemblies' ) ;
#209 = DIRECTION ( 'NONE',  ( -3.491481338843133355E-15, 1.224646799147353207E-16, -1.000000000000000000 ) ) ;
#210 = EDGE_LOOP ( 'NONE', ( #108 ) ) ;
#211 = SECURITY_CLASSIFICATION ( '', '', #35 ) ;
#212 = ORIENTED_EDGE ( 'NONE', *, *, #155, .F. ) ;
#213 = ORIENTED_EDGE ( 'NONE', *, *, #78, .T. ) ;
#214 = CARTESIAN_POINT ( 'NONE',  ( 8.601363918179945137E-16, 0.4099999999999981992, 0.2463528538013013969 ) ) ;
#215 = AXIS2_PLACEMENT_3D ( 'NONE', #84, #218, #167 ) ;
#216 = APPROVAL_DATE_TIME ( #136, #41 ) ;
#217 = CC_DESIGN_PERSON_AND_ORGANIZATION_ASSIGNMENT ( #99, #184, ( #29 ) ) ;
#218 = DIRECTION ( 'NONE',  ( 3.491481338843133355E-15, -1.224646799147353207E-16, 1.000000000000000000 ) ) ;
#219 = FACE_OUTER_BOUND ( 'NONE', #46, .T. ) ;
#220 = PRODUCT_DEFINITION_SHAPE ( 'NONE', 'NONE',  #101 ) ;
#221 = MANIFOLD_SOLID_BREP ( 'Corps-Déplacer/Copier1[1]', #74 ) ;
#222 = CIRCLE ( 'NONE', #16, 0.4099999999999988098 ) ;
#223 = DATE_TIME_ROLE ( 'classification_date' ) ;
ENDSEC;
END-ISO-10303-21;
