ISO-10303-21;
HEADER;
FILE_DESCRIPTION (( 'STEP AP203' ),
    '1' );
FILE_NAME ('36981.step',
    '2021-10-07T13:47:00',
    ( '' ),
    ( '' ),
    'SwSTEP 2.0',
    'SolidWorks 2019',
    '' );
FILE_SCHEMA (( 'CONFIG_CONTROL_DESIGN' ));
ENDSEC;

DATA;
#1 = DATE_AND_TIME ( #166, #134 ) ;
#2 = CALENDAR_DATE ( 2021, 7, 10 ) ;
#3 = APPROVAL_PERSON_ORGANIZATION ( #204, #161, #137 ) ;
#4 = DATE_AND_TIME ( #99, #10 ) ;
#5 = ADVANCED_FACE ( 'NONE', ( #194 ), #170, .T. ) ;
#6 = CC_DESIGN_APPROVAL ( #78, ( #207 ) ) ;
#7 = DIRECTION ( 'NONE',  ( 3.491481338843133355E-15, -1.224646799147353207E-16, 1.000000000000000000 ) ) ;
#8 = ADVANCED_FACE ( 'NONE', ( #27 ), #22, .T. ) ;
#9 = CIRCLE ( 'NONE', #75, 0.4049999999999994160 ) ;
#10 = LOCAL_TIME ( 15, 47, 0.0000000000000000000, #77 ) ;
#11 = DIRECTION ( 'NONE',  ( -3.491481338843133355E-15, 1.224646799147353207E-16, -1.000000000000000000 ) ) ;
#12 = CARTESIAN_POINT ( 'NONE',  ( 2.199633243471174014E-14, 0.4049999999999986944, 6.299999999999999822 ) ) ;
#13 = DIRECTION ( 'NONE',  ( -3.491481338843133355E-15, 1.224646799147353207E-16, -1.000000000000000000 ) ) ;
#14 = CONICAL_SURFACE ( 'NONE', #98, 0.5500000000000001554, 0.7853981633974510546 ) ;
#15 = FACE_OUTER_BOUND ( 'NONE', #21, .T. ) ;
#16 = CC_DESIGN_PERSON_AND_ORGANIZATION_ASSIGNMENT ( #115, #189, ( #28 ) ) ;
#17 = PERSON_AND_ORGANIZATION ( #214, #94 ) ;
#18 = DATE_AND_TIME ( #59, #119 ) ;
#19 = PERSON_AND_ORGANIZATION ( #214, #94 ) ;
#20 = APPROVAL_DATE_TIME ( #18, #78 ) ;
#21 = EDGE_LOOP ( 'NONE', ( #121 ) ) ;
#22 = PLANE ( 'NONE',  #216 ) ;
#23 = ADVANCED_FACE ( 'NONE', ( #213, #183 ), #206, .T. ) ;
#24 = AXIS2_PLACEMENT_3D ( 'NONE', #171, #71, #152 ) ;
#25 = ORIENTED_EDGE ( 'NONE', *, *, #82, .F. ) ;
#26 = DIRECTION ( 'NONE',  ( 0.0000000000000000000, 1.000000000000000000, 0.0000000000000000000 ) ) ;
#27 = FACE_OUTER_BOUND ( 'NONE', #154, .T. ) ;
#28 = PRODUCT_DEFINITION ( 'UNKNOWN', '', #207, #101 ) ;
#29 = CARTESIAN_POINT ( 'NONE',  ( 1.047444401652940007E-13, -3.673940397442059178E-15, 30.00000000000000000 ) ) ;
#30 = CARTESIAN_POINT ( 'NONE',  ( 1.040461438975253740E-13, 0.7499999999999963363, 29.80000000000000071 ) ) ;
#31 = FACE_OUTER_BOUND ( 'NONE', #156, .T. ) ;
#32 = CC_DESIGN_PERSON_AND_ORGANIZATION_ASSIGNMENT ( #205, #149, ( #143 ) ) ;
#33 = CIRCLE ( 'NONE', #69, 0.4049999999999983058 ) ;
#34 = LOCAL_TIME ( 15, 47, 0.0000000000000000000, #80 ) ;
#35 = CARTESIAN_POINT ( 'NONE',  ( 0.0000000000000000000, 0.0000000000000000000, 0.0000000000000000000 ) ) ;
#36 = FACE_OUTER_BOUND ( 'NONE', #85, .T. ) ;
#37 = PERSON_AND_ORGANIZATION ( #214, #94 ) ;
#38 = APPLICATION_PROTOCOL_DEFINITION ( 'international standard', 'config_control_design', 1994, #136 ) ;
#39 = PRODUCT_DEFINITION_SHAPE ( 'NONE', 'NONE',  #28 ) ;
#40 = AXIS2_PLACEMENT_3D ( 'NONE', #186, #13, #90 ) ;
#41 = COORDINATED_UNIVERSAL_TIME_OFFSET ( 1, 0, .AHEAD. ) ;
#42 =( GEOMETRIC_REPRESENTATION_CONTEXT ( 3 ) GLOBAL_UNCERTAINTY_ASSIGNED_CONTEXT ( ( #180 ) ) GLOBAL_UNIT_ASSIGNED_CONTEXT ( ( #144, #176, #130 ) ) REPRESENTATION_CONTEXT ( 'NONE', 'WORKASPACE' ) );
#43 = ORIENTED_EDGE ( 'NONE', *, *, #145, .T. ) ;
#44 = FACE_OUTER_BOUND ( 'NONE', #155, .T. ) ;
#45 = DIRECTION ( 'NONE',  ( -3.491481338843133355E-15, 1.224646799147353207E-16, -1.000000000000000000 ) ) ;
#46 = ORIENTED_EDGE ( 'NONE', *, *, #91, .F. ) ;
#47 = ORIENTED_EDGE ( 'NONE', *, *, #141, .F. ) ;
#48 = CARTESIAN_POINT ( 'NONE',  ( 8.496469236250918361E-16, -2.980160236994505673E-17, 0.2433485507061635134 ) ) ;
#49 = DIRECTION ( 'NONE',  ( 0.0000000000000000000, 1.000000000000000000, 0.0000000000000000000 ) ) ;
#50 = LOCAL_TIME ( 15, 47, 0.0000000000000000000, #150 ) ;
#51 = APPLICATION_CONTEXT ( 'configuration controlled 3d designs of mechanical parts and assemblies' ) ;
#52 = DIRECTION ( 'NONE',  ( 0.0000000000000000000, 1.000000000000000000, 0.0000000000000000000 ) ) ;
#53 = ORIENTED_EDGE ( 'NONE', *, *, #145, .F. ) ;
#54 = DIRECTION ( 'NONE',  ( -3.491481338843133355E-15, 1.224646799147353207E-16, -1.000000000000000000 ) ) ;
#55 = AXIS2_PLACEMENT_3D ( 'NONE', #193, #54, #146 ) ;
#56 = VERTEX_POINT ( 'NONE', #162 ) ;
#57 = APPROVAL_STATUS ( 'not_yet_approved' ) ;
#58 = SHAPE_DEFINITION_REPRESENTATION ( #39, #70 ) ;
#59 = CALENDAR_DATE ( 2021, 7, 10 ) ;
#60 = CC_DESIGN_PERSON_AND_ORGANIZATION_ASSIGNMENT ( #138, #163, ( #118 ) ) ;
#61 = COORDINATED_UNIVERSAL_TIME_OFFSET ( 1, 0, .AHEAD. ) ;
#62 = EDGE_LOOP ( 'NONE', ( #47 ) ) ;
#63 = APPROVAL_DATE_TIME ( #209, #157 ) ;
#64 = ORIENTED_EDGE ( 'NONE', *, *, #82, .T. ) ;
#65 = DIRECTION ( 'NONE',  ( 3.491481338843133355E-15, -1.224646799147353207E-16, 1.000000000000000000 ) ) ;
#66 = CC_DESIGN_PERSON_AND_ORGANIZATION_ASSIGNMENT ( #37, #97, ( #207 ) ) ;
#67 = EDGE_LOOP ( 'NONE', ( #81 ) ) ;
#68 = CYLINDRICAL_SURFACE ( 'NONE', #55, 0.7499999999999985567 ) ;
#69 = AXIS2_PLACEMENT_3D ( 'NONE', #106, #45, #169 ) ;
#70 = ADVANCED_BREP_SHAPE_REPRESENTATION ( '36981', ( #79, #220, #165 ), #42 ) ;
#71 = DIRECTION ( 'NONE',  ( -3.491481338843133355E-15, 1.224646799147353207E-16, -1.000000000000000000 ) ) ;
#72 = DIRECTION ( 'NONE',  ( -3.491481338843133355E-15, 1.224646799147353207E-16, -1.000000000000000000 ) ) ;
#73 = CARTESIAN_POINT ( 'NONE',  ( 1.040461438975253740E-13, -3.649447461459112464E-15, 29.80000000000000071 ) ) ;
#74 = DIRECTION ( 'NONE',  ( 0.0000000000000000000, 1.000000000000000000, 0.0000000000000000000 ) ) ;
#75 = AXIS2_PLACEMENT_3D ( 'NONE', #173, #87, #89 ) ;
#76 = APPROVAL_ROLE ( '' ) ;
#77 = COORDINATED_UNIVERSAL_TIME_OFFSET ( 1, 0, .AHEAD. ) ;
#78 = APPROVAL ( #92, 'UNSPECIFIED' ) ;
#79 = MANIFOLD_SOLID_BREP ( 'Corps-Déplacer/Copier1[1]', #83 ) ;
#80 = COORDINATED_UNIVERSAL_TIME_OFFSET ( 1, 0, .AHEAD. ) ;
#81 = ORIENTED_EDGE ( 'NONE', *, *, #167, .T. ) ;
#82 = EDGE_CURVE ( 'NONE', #128, #128, #33, .T. ) ;
#83 = CLOSED_SHELL ( 'NONE', ( #109, #23, #105, #196, #96 ) ) ;
#84 = CARTESIAN_POINT ( 'NONE',  ( 2.199633243471174014E-14, 3.037013559890246192E-33, 6.299999999999999822 ) ) ;
#85 = EDGE_LOOP ( 'NONE', ( #43 ) ) ;
#86 = CARTESIAN_POINT ( 'NONE',  ( 2.408269339474319919E-14, -8.447071749348516161E-16, 6.897557528611266697 ) ) ;
#87 = DIRECTION ( 'NONE',  ( -3.491481338843133355E-15, 1.224646799147353207E-16, -1.000000000000000000 ) ) ;
#88 = APPLICATION_PROTOCOL_DEFINITION ( 'international standard', 'config_control_design', 1994, #51 ) ;
#89 = DIRECTION ( 'NONE',  ( 0.0000000000000000000, 1.000000000000000000, 0.0000000000000000000 ) ) ;
#90 = DIRECTION ( 'NONE',  ( 0.0000000000000000000, 1.000000000000000000, 0.0000000000000000000 ) ) ;
#91 = EDGE_CURVE ( 'NONE', #56, #56, #221, .T. ) ;
#92 = APPROVAL_STATUS ( 'not_yet_approved' ) ;
#93 = AXIS2_PLACEMENT_3D ( 'NONE', #86, #11, #26 ) ;
#94 = ORGANIZATION ( 'UNSPECIFIED', 'UNSPECIFIED', '' ) ;
#95 = APPROVAL_DATE_TIME ( #151, #161 ) ;
#96 = ADVANCED_FACE ( 'NONE', ( #125 ), #217, .F. ) ;
#97 = PERSON_AND_ORGANIZATION_ROLE ( 'creator' ) ;
#98 = AXIS2_PLACEMENT_3D ( 'NONE', #29, #187, #49 ) ;
#99 = CALENDAR_DATE ( 2021, 7, 10 ) ;
#100 = EDGE_LOOP ( 'NONE', ( #64 ) ) ;
#101 = DESIGN_CONTEXT ( 'detailed design', #136, 'design' ) ;
#102 = EDGE_LOOP ( 'NONE', ( #192 ) ) ;
#103 = EDGE_LOOP ( 'NONE', ( #158 ) ) ;
#104 = CC_DESIGN_APPROVAL ( #157, ( #143 ) ) ;
#105 = ADVANCED_FACE ( 'NONE', ( #44, #211 ), #68, .T. ) ;
#106 = CARTESIAN_POINT ( 'NONE',  ( 8.496469236250918361E-16, -2.980160236994505673E-17, 0.2433485507061635134 ) ) ;
#107 = CIRCLE ( 'NONE', #139, 0.7500000000000000000 ) ;
#108 = DIRECTION ( 'NONE',  ( 0.0000000000000000000, -1.000000000000000000, 0.0000000000000000000 ) ) ;
#109 = ADVANCED_FACE ( 'NONE', ( #15 ), #218, .F. ) ;
#110 = CARTESIAN_POINT ( 'NONE',  ( 2.199633243471174014E-14, 3.037013559890246192E-33, 6.299999999999999822 ) ) ;
#111 = DIRECTION ( 'NONE',  ( 0.0000000000000000000, 0.0000000000000000000, 1.000000000000000000 ) ) ;
#112 = CARTESIAN_POINT ( 'NONE',  ( 8.496469236250920334E-16, 0.4049999999999982503, 0.2433485507061635689 ) ) ;
#113 = CARTESIAN_POINT ( 'NONE',  ( 1.047444401652940007E-13, 0.5499999999999964917, 30.00000000000000000 ) ) ;
#114 = PERSON_AND_ORGANIZATION ( #214, #94 ) ;
#115 = PERSON_AND_ORGANIZATION ( #214, #94 ) ;
#116 = AXIS2_PLACEMENT_3D ( 'NONE', #129, #223, #52 ) ;
#117 = CIRCLE ( 'NONE', #116, 0.4049999999999994160 ) ;
#118 = PRODUCT ( '36981', '36981', '', ( #208 ) ) ;
#119 = LOCAL_TIME ( 15, 47, 0.0000000000000000000, #61 ) ;
#120 = PERSON_AND_ORGANIZATION_ROLE ( 'design_supplier' ) ;
#121 = ORIENTED_EDGE ( 'NONE', *, *, #141, .T. ) ;
#122 = EDGE_LOOP ( 'NONE', ( #25 ) ) ;
#123 = CC_DESIGN_APPROVAL ( #161, ( #28 ) ) ;
#124 = DIRECTION ( 'NONE',  ( -4.275831445896958607E-31, -1.000000000000000000, -1.224646799147353207E-16 ) ) ;
#125 = FACE_OUTER_BOUND ( 'NONE', #102, .T. ) ;
#126 = APPROVAL_PERSON_ORGANIZATION ( #19, #78, #179 ) ;
#127 = DIRECTION ( 'NONE',  ( 3.491481338843133355E-15, -1.224646799147353207E-16, 1.000000000000000000 ) ) ;
#128 = VERTEX_POINT ( 'NONE', #112 ) ;
#129 = CARTESIAN_POINT ( 'NONE',  ( 2.199633243471174014E-14, -7.715274834628325378E-16, 6.299999999999999822 ) ) ;
#130 =( NAMED_UNIT ( * ) SI_UNIT ( $, .STERADIAN. ) SOLID_ANGLE_UNIT ( ) );
#131 = ADVANCED_FACE ( 'NONE', ( #219, #36 ), #175, .T. ) ;
#132 = AXIS2_PLACEMENT_3D ( 'NONE', #110, #127, #159 ) ;
#133 = DATE_TIME_ROLE ( 'creation_date' ) ;
#134 = LOCAL_TIME ( 15, 47, 0.0000000000000000000, #41 ) ;
#135 = APPROVAL_STATUS ( 'not_yet_approved' ) ;
#136 = APPLICATION_CONTEXT ( 'configuration controlled 3d designs of mechanical parts and assemblies' ) ;
#137 = APPROVAL_ROLE ( '' ) ;
#138 = PERSON_AND_ORGANIZATION ( #214, #94 ) ;
#139 = AXIS2_PLACEMENT_3D ( 'NONE', #73, #184, #74 ) ;
#140 = EDGE_LOOP ( 'NONE', ( #182 ) ) ;
#141 = EDGE_CURVE ( 'NONE', #200, #200, #117, .T. ) ;
#142 = AXIS2_PLACEMENT_3D ( 'NONE', #181, #212, #108 ) ;
#143 = SECURITY_CLASSIFICATION ( '', '', #190 ) ;
#144 =( LENGTH_UNIT ( ) NAMED_UNIT ( * ) SI_UNIT ( .MILLI., .METRE. ) );
#145 = EDGE_CURVE ( 'NONE', #160, #160, #9, .T. ) ;
#146 = DIRECTION ( 'NONE',  ( 4.275831445896959482E-31, 1.000000000000000000, 1.224646799147353454E-16 ) ) ;
#147 = CIRCLE ( 'NONE', #40, 0.5500000000000001554 ) ;
#148 = CC_DESIGN_SECURITY_CLASSIFICATION ( #143, ( #207 ) ) ;
#149 = PERSON_AND_ORGANIZATION_ROLE ( 'classification_officer' ) ;
#150 = COORDINATED_UNIVERSAL_TIME_OFFSET ( 1, 0, .AHEAD. ) ;
#151 = DATE_AND_TIME ( #164, #50 ) ;
#152 = DIRECTION ( 'NONE',  ( 4.275831445896958607E-31, 1.000000000000000000, 1.224646799147353207E-16 ) ) ;
#153 = DIRECTION ( 'NONE',  ( -4.755382578733935819E-31, -1.000000000000000000, -1.338521200599393857E-16 ) ) ;
#154 = EDGE_LOOP ( 'NONE', ( #53 ) ) ;
#155 = EDGE_LOOP ( 'NONE', ( #46 ) ) ;
#156 = EDGE_LOOP ( 'NONE', ( #191 ) ) ;
#157 = APPROVAL ( #135, 'UNSPECIFIED' ) ;
#158 = ORIENTED_EDGE ( 'NONE', *, *, #188, .T. ) ;
#159 = DIRECTION ( 'NONE',  ( -4.275831445896958607E-31, -1.000000000000000000, -1.224646799147353207E-16 ) ) ;
#160 = VERTEX_POINT ( 'NONE', #12 ) ;
#161 = APPROVAL ( #57, 'UNSPECIFIED' ) ;
#162 = CARTESIAN_POINT ( 'NONE',  ( 2.408269339474319919E-14, 0.7499999999999963363, 6.897557528611266697 ) ) ;
#163 = PERSON_AND_ORGANIZATION_ROLE ( 'design_owner' ) ;
#164 = CALENDAR_DATE ( 2021, 7, 10 ) ;
#165 = AXIS2_PLACEMENT_3D ( 'NONE', #199, #111, #174 ) ;
#166 = CALENDAR_DATE ( 2021, 7, 10 ) ;
#167 = EDGE_CURVE ( 'NONE', #202, #202, #147, .T. ) ;
#168 = AXIS2_PLACEMENT_3D ( 'NONE', #48, #7, #153 ) ;
#169 = DIRECTION ( 'NONE',  ( 4.755382578733935819E-31, 1.000000000000000000, 1.338521200599393857E-16 ) ) ;
#170 = CONICAL_SURFACE ( 'NONE', #168, 0.4049999999999983058, 1.029744258676649871 ) ;
#171 = CARTESIAN_POINT ( 'NONE',  ( 1.047444401652940007E-13, 4.124339402320053683E-33, 30.00000000000000000 ) ) ;
#172 = CARTESIAN_POINT ( 'NONE',  ( 2.199633243471174014E-14, 0.4049999999999986944, 6.299999999999999822 ) ) ;
#173 = CARTESIAN_POINT ( 'NONE',  ( 2.199633243471174014E-14, -7.715274834628325378E-16, 6.299999999999999822 ) ) ;
#174 = DIRECTION ( 'NONE',  ( 1.000000000000000000, 0.0000000000000000000, 0.0000000000000000000 ) ) ;
#175 = CYLINDRICAL_SURFACE ( 'NONE', #210, 0.4049999999999989164 ) ;
#176 =( NAMED_UNIT ( * ) PLANE_ANGLE_UNIT ( ) SI_UNIT ( $, .RADIAN. ) );
#177 = CC_DESIGN_PERSON_AND_ORGANIZATION_ASSIGNMENT ( #114, #120, ( #207 ) ) ;
#178 = DATE_TIME_ROLE ( 'classification_date' ) ;
#179 = APPROVAL_ROLE ( '' ) ;
#180 = UNCERTAINTY_MEASURE_WITH_UNIT (LENGTH_MEASURE( 1.000000000000000082E-05 ), #144, 'distance_accuracy_value', 'NONE');
#181 = CARTESIAN_POINT ( 'NONE',  ( 2.408269339474319919E-14, -8.447071749348516161E-16, 6.897557528611266697 ) ) ;
#182 = ORIENTED_EDGE ( 'NONE', *, *, #91, .T. ) ;
#183 = FACE_OUTER_BOUND ( 'NONE', #140, .T. ) ;
#184 = DIRECTION ( 'NONE',  ( -3.491481338843133355E-15, 1.224646799147353207E-16, -1.000000000000000000 ) ) ;
#185 = FACE_BOUND ( 'NONE', #67, .T. ) ;
#186 = CARTESIAN_POINT ( 'NONE',  ( 1.047444401652940007E-13, -3.673940397442059178E-15, 30.00000000000000000 ) ) ;
#187 = DIRECTION ( 'NONE',  ( -3.491481338843133355E-15, 1.224646799147353207E-16, -1.000000000000000000 ) ) ;
#188 = EDGE_CURVE ( 'NONE', #222, #222, #107, .T. ) ;
#189 = PERSON_AND_ORGANIZATION_ROLE ( 'creator' ) ;
#190 = SECURITY_CLASSIFICATION_LEVEL ( 'unclassified' ) ;
#191 = ORIENTED_EDGE ( 'NONE', *, *, #188, .F. ) ;
#192 = ORIENTED_EDGE ( 'NONE', *, *, #167, .F. ) ;
#193 = CARTESIAN_POINT ( 'NONE',  ( 0.0000000000000000000, 0.0000000000000000000, 0.0000000000000000000 ) ) ;
#194 = FACE_OUTER_BOUND ( 'NONE', #100, .T. ) ;
#195 = CC_DESIGN_DATE_AND_TIME_ASSIGNMENT ( #4, #178, ( #143 ) ) ;
#196 = ADVANCED_FACE ( 'NONE', ( #31, #185 ), #14, .T. ) ;
#197 = APPROVAL_PERSON_ORGANIZATION ( #17, #157, #76 ) ;
#198 = DIRECTION ( 'NONE',  ( 4.275831445896958607E-31, 1.000000000000000000, 1.224646799147353207E-16 ) ) ;
#199 = CARTESIAN_POINT ( 'NONE',  ( 0.0000000000000000000, 0.0000000000000000000, 0.0000000000000000000 ) ) ;
#200 = VERTEX_POINT ( 'NONE', #172 ) ;
#201 = CLOSED_SHELL ( 'NONE', ( #5, #131, #8 ) ) ;
#202 = VERTEX_POINT ( 'NONE', #113 ) ;
#203 = CC_DESIGN_DATE_AND_TIME_ASSIGNMENT ( #1, #133, ( #28 ) ) ;
#204 = PERSON_AND_ORGANIZATION ( #214, #94 ) ;
#205 = PERSON_AND_ORGANIZATION ( #214, #94 ) ;
#206 = CONICAL_SURFACE ( 'NONE', #142, 0.7499999999999972244, 0.5235987755982929315 ) ;
#207 = PRODUCT_DEFINITION_FORMATION_WITH_SPECIFIED_SOURCE ( 'ANY', '', #118, .NOT_KNOWN. ) ;
#208 = MECHANICAL_CONTEXT ( 'NONE', #51, 'mechanical' ) ;
#209 = DATE_AND_TIME ( #2, #34 ) ;
#210 = AXIS2_PLACEMENT_3D ( 'NONE', #35, #72, #198 ) ;
#211 = FACE_OUTER_BOUND ( 'NONE', #103, .T. ) ;
#212 = DIRECTION ( 'NONE',  ( 3.491481338843133355E-15, -1.224646799147353207E-16, 1.000000000000000000 ) ) ;
#213 = FACE_BOUND ( 'NONE', #62, .T. ) ;
#214 = PERSON ( 'UNSPECIFIED', 'UNSPECIFIED', 'UNSPECIFIED', ('UNSPECIFIED'), ('UNSPECIFIED'), ('UNSPECIFIED') ) ;
#215 = PRODUCT_RELATED_PRODUCT_CATEGORY ( 'detail', '', ( #118 ) ) ;
#216 = AXIS2_PLACEMENT_3D ( 'NONE', #84, #65, #124 ) ;
#217 = PLANE ( 'NONE',  #24 ) ;
#218 = PLANE ( 'NONE',  #132 ) ;
#219 = FACE_OUTER_BOUND ( 'NONE', #122, .T. ) ;
#220 = MANIFOLD_SOLID_BREP ( 'Corps-Déplacer/Copier1[2]', #201 ) ;
#221 = CIRCLE ( 'NONE', #93, 0.7499999999999972244 ) ;
#222 = VERTEX_POINT ( 'NONE', #30 ) ;
#223 = DIRECTION ( 'NONE',  ( -3.491481338843133355E-15, 1.224646799147353207E-16, -1.000000000000000000 ) ) ;
ENDSEC;
END-ISO-10303-21;
