ISO-10303-21;
HEADER;
FILE_DESCRIPTION (( 'STEP AP203' ),
    '1' );
FILE_NAME ('36978.step',
    '2021-10-07T13:46:59',
    ( '' ),
    ( '' ),
    'SwSTEP 2.0',
    'SolidWorks 2019',
    '' );
FILE_SCHEMA (( 'CONFIG_CONTROL_DESIGN' ));
ENDSEC;

DATA;
#1 = CONICAL_SURFACE ( 'NONE', #126, 0.4999999999999971689, 0.2617993877991437457 ) ;
#2 = EDGE_LOOP ( 'NONE', ( #76 ) ) ;
#3 = PERSON_AND_ORGANIZATION_ROLE ( 'classification_officer' ) ;
#4 = PERSON_AND_ORGANIZATION ( #58, #137 ) ;
#5 = ORIENTED_EDGE ( 'NONE', *, *, #155, .F. ) ;
#6 = CIRCLE ( 'NONE', #174, 0.4999999999999971689 ) ;
#7 = APPROVAL_STATUS ( 'not_yet_approved' ) ;
#8 = CARTESIAN_POINT ( 'NONE',  ( 0.0000000000000000000, 0.0000000000000000000, 0.0000000000000000000 ) ) ;
#9 = DIRECTION ( 'NONE',  ( -3.491481338843133355E-15, 1.224646799147353207E-16, -1.000000000000000000 ) ) ;
#10 = CALENDAR_DATE ( 2021, 7, 10 ) ;
#11 = PLANE ( 'NONE',  #220 ) ;
#12 = AXIS2_PLACEMENT_3D ( 'NONE', #26, #9, #63 ) ;
#13 = PLANE ( 'NONE',  #28 ) ;
#14 = EDGE_CURVE ( 'NONE', #135, #135, #219, .T. ) ;
#15 = CARTESIAN_POINT ( 'NONE',  ( 2.199633243471174014E-14, 0.3899999999999980149, 6.299999999999999822 ) ) ;
#16 = APPLICATION_CONTEXT ( 'configuration controlled 3d designs of mechanical parts and assemblies' ) ;
#17 = EDGE_LOOP ( 'NONE', ( #146 ) ) ;
#18 = AXIS2_PLACEMENT_3D ( 'NONE', #80, #112, #65 ) ;
#19 = ORIENTED_EDGE ( 'NONE', *, *, #202, .T. ) ;
#20 = PERSON_AND_ORGANIZATION ( #58, #137 ) ;
#21 = EDGE_LOOP ( 'NONE', ( #5 ) ) ;
#22 = PRODUCT_DEFINITION_FORMATION_WITH_SPECIFIED_SOURCE ( 'ANY', '', #189, .NOT_KNOWN. ) ;
#23 = VERTEX_POINT ( 'NONE', #193 ) ;
#24 = CARTESIAN_POINT ( 'NONE',  ( 2.199633243471174014E-14, -7.715274834628325378E-16, 6.299999999999999822 ) ) ;
#25 = DIRECTION ( 'NONE',  ( 0.0000000000000000000, 0.0000000000000000000, 1.000000000000000000 ) ) ;
#26 = CARTESIAN_POINT ( 'NONE',  ( 2.199633243471174014E-14, -7.715274834628325378E-16, 6.299999999999999822 ) ) ;
#27 = FACE_OUTER_BOUND ( 'NONE', #144, .T. ) ;
#28 = AXIS2_PLACEMENT_3D ( 'NONE', #133, #199, #47 ) ;
#29 = APPROVAL_DATE_TIME ( #151, #51 ) ;
#30 = PRODUCT_RELATED_PRODUCT_CATEGORY ( 'detail', '', ( #189 ) ) ;
#31 = FACE_OUTER_BOUND ( 'NONE', #2, .T. ) ;
#32 = VERTEX_POINT ( 'NONE', #170 ) ;
#33 = DIRECTION ( 'NONE',  ( -3.491481338843133355E-15, 1.224646799147353207E-16, -1.000000000000000000 ) ) ;
#34 = ADVANCED_FACE ( 'NONE', ( #140, #125 ), #103, .T. ) ;
#35 = CIRCLE ( 'NONE', #148, 0.4000000000000000222 ) ;
#36 = EDGE_LOOP ( 'NONE', ( #208 ) ) ;
#37 =( NAMED_UNIT ( * ) SI_UNIT ( $, .STERADIAN. ) SOLID_ANGLE_UNIT ( ) );
#38 = AXIS2_PLACEMENT_3D ( 'NONE', #83, #166, #95 ) ;
#39 = EDGE_LOOP ( 'NONE', ( #54 ) ) ;
#40 = PERSON_AND_ORGANIZATION_ROLE ( 'design_owner' ) ;
#41 = EDGE_LOOP ( 'NONE', ( #127 ) ) ;
#42 = APPLICATION_CONTEXT ( 'configuration controlled 3d designs of mechanical parts and assemblies' ) ;
#43 = PRODUCT_DEFINITION ( 'UNKNOWN', '', #22, #178 ) ;
#44 = FACE_OUTER_BOUND ( 'NONE', #190, .T. ) ;
#45 = CIRCLE ( 'NONE', #12, 0.3899999999999987366 ) ;
#46 = COORDINATED_UNIVERSAL_TIME_OFFSET ( 1, 0, .AHEAD. ) ;
#47 = DIRECTION ( 'NONE',  ( -4.275831445896958607E-31, -1.000000000000000000, -1.224646799147353207E-16 ) ) ;
#48 = FACE_OUTER_BOUND ( 'NONE', #21, .T. ) ;
#49 = DIRECTION ( 'NONE',  ( -3.491481338843133355E-15, 1.224646799147353207E-16, -1.000000000000000000 ) ) ;
#50 = CARTESIAN_POINT ( 'NONE',  ( 1.047444401652940007E-13, -3.673940397442059178E-15, 30.00000000000000000 ) ) ;
#51 = APPROVAL ( #217, 'UNSPECIFIED' ) ;
#52 = CONICAL_SURFACE ( 'NONE', #68, 0.4000000000000000222, 0.7853981633974512766 ) ;
#53 = CARTESIAN_POINT ( 'NONE',  ( 1.043952920314096810E-13, -3.661693929450586610E-15, 29.89999999999999858 ) ) ;
#54 = ORIENTED_EDGE ( 'NONE', *, *, #202, .F. ) ;
#55 = CALENDAR_DATE ( 2021, 7, 10 ) ;
#56 = COORDINATED_UNIVERSAL_TIME_OFFSET ( 1, 0, .AHEAD. ) ;
#57 = CIRCLE ( 'NONE', #102, 0.3899999999999982925 ) ;
#58 = PERSON ( 'UNSPECIFIED', 'UNSPECIFIED', 'UNSPECIFIED', ('UNSPECIFIED'), ('UNSPECIFIED'), ('UNSPECIFIED') ) ;
#59 = CARTESIAN_POINT ( 'NONE',  ( 2.199633243471174014E-14, 0.3899999999999980149, 6.299999999999999822 ) ) ;
#60 = DATE_TIME_ROLE ( 'classification_date' ) ;
#61 = DIRECTION ( 'NONE',  ( 0.0000000000000000000, -1.000000000000000000, 0.0000000000000000000 ) ) ;
#62 = DIRECTION ( 'NONE',  ( 0.0000000000000000000, 1.000000000000000000, 0.0000000000000000000 ) ) ;
#63 = DIRECTION ( 'NONE',  ( 0.0000000000000000000, 1.000000000000000000, 0.0000000000000000000 ) ) ;
#64 = COORDINATED_UNIVERSAL_TIME_OFFSET ( 1, 0, .AHEAD. ) ;
#65 = DIRECTION ( 'NONE',  ( 4.275831445896959482E-31, 1.000000000000000000, 1.224646799147353207E-16 ) ) ;
#66 = MANIFOLD_SOLID_BREP ( 'Corps-Déplacer/Copier1[1]', #201 ) ;
#67 = PRODUCT_DEFINITION_SHAPE ( 'NONE', 'NONE',  #43 ) ;
#68 = AXIS2_PLACEMENT_3D ( 'NONE', #50, #49, #118 ) ;
#69 = DIRECTION ( 'NONE',  ( -3.491481338843133355E-15, 1.224646799147353207E-16, -1.000000000000000000 ) ) ;
#70 = ADVANCED_FACE ( 'NONE', ( #96, #213 ), #1, .T. ) ;
#71 = LOCAL_TIME ( 15, 46, 59.00000000000000000, #46 ) ;
#72 = CC_DESIGN_DATE_AND_TIME_ASSIGNMENT ( #77, #60, ( #97 ) ) ;
#73 = LOCAL_TIME ( 15, 46, 59.00000000000000000, #207 ) ;
#74 = EDGE_LOOP ( 'NONE', ( #110 ) ) ;
#75 = SECURITY_CLASSIFICATION_LEVEL ( 'unclassified' ) ;
#76 = ORIENTED_EDGE ( 'NONE', *, *, #109, .F. ) ;
#77 = DATE_AND_TIME ( #160, #223 ) ;
#78 = PERSON_AND_ORGANIZATION ( #58, #137 ) ;
#79 = APPLICATION_PROTOCOL_DEFINITION ( 'international standard', 'config_control_design', 1994, #42 ) ;
#80 = CARTESIAN_POINT ( 'NONE',  ( 0.0000000000000000000, 0.0000000000000000000, 0.0000000000000000000 ) ) ;
#81 = FACE_OUTER_BOUND ( 'NONE', #17, .T. ) ;
#82 = CC_DESIGN_DATE_AND_TIME_ASSIGNMENT ( #92, #142, ( #43 ) ) ;
#83 = CARTESIAN_POINT ( 'NONE',  ( 8.181785190463847895E-16, -2.869783931920634932E-17, 0.2343356414207500571 ) ) ;
#84 = DIRECTION ( 'NONE',  ( 0.0000000000000000000, 1.000000000000000000, 0.0000000000000000000 ) ) ;
#85 = ADVANCED_FACE ( 'NONE', ( #147, #81 ), #134, .T. ) ;
#86 = APPROVAL_PERSON_ORGANIZATION ( #145, #115, #131 ) ;
#87 = AXIS2_PLACEMENT_3D ( 'NONE', #221, #69, #205 ) ;
#88 = APPLICATION_PROTOCOL_DEFINITION ( 'international standard', 'config_control_design', 1994, #16 ) ;
#89 = COORDINATED_UNIVERSAL_TIME_OFFSET ( 1, 0, .AHEAD. ) ;
#90 = EDGE_LOOP ( 'NONE', ( #210 ) ) ;
#91 = AXIS2_PLACEMENT_3D ( 'NONE', #24, #216, #164 ) ;
#92 = DATE_AND_TIME ( #10, #71 ) ;
#93 = DIRECTION ( 'NONE',  ( -3.491481338843133355E-15, 1.224646799147353207E-16, -1.000000000000000000 ) ) ;
#94 = PERSON_AND_ORGANIZATION ( #58, #137 ) ;
#95 = DIRECTION ( 'NONE',  ( -4.938281908685241784E-31, -1.000000000000000000, -1.390002785237832291E-16 ) ) ;
#96 = FACE_BOUND ( 'NONE', #90, .T. ) ;
#97 = SECURITY_CLASSIFICATION ( '', '', #75 ) ;
#98 = APPROVAL_ROLE ( '' ) ;
#99 = CC_DESIGN_PERSON_AND_ORGANIZATION_ASSIGNMENT ( #20, #104, ( #22 ) ) ;
#100 = PLANE ( 'NONE',  #87 ) ;
#101 = CC_DESIGN_PERSON_AND_ORGANIZATION_ASSIGNMENT ( #94, #198, ( #43 ) ) ;
#102 = AXIS2_PLACEMENT_3D ( 'NONE', #182, #184, #149 ) ;
#103 = CYLINDRICAL_SURFACE ( 'NONE', #180, 0.3899999999999985145 ) ;
#104 = PERSON_AND_ORGANIZATION_ROLE ( 'design_supplier' ) ;
#105 = CC_DESIGN_APPROVAL ( #215, ( #22 ) ) ;
#106 = DIRECTION ( 'NONE',  ( 1.000000000000000000, 0.0000000000000000000, 0.0000000000000000000 ) ) ;
#107 = EDGE_LOOP ( 'NONE', ( #19 ) ) ;
#108 = APPROVAL_DATE_TIME ( #183, #215 ) ;
#109 = EDGE_CURVE ( 'NONE', #119, #119, #35, .T. ) ;
#110 = ORIENTED_EDGE ( 'NONE', *, *, #109, .T. ) ;
#111 = DATE_AND_TIME ( #55, #73 ) ;
#112 = DIRECTION ( 'NONE',  ( -3.491481338843133355E-15, 1.224646799147353207E-16, -1.000000000000000000 ) ) ;
#113 = APPROVAL_ROLE ( '' ) ;
#114 = DIRECTION ( 'NONE',  ( -4.275831445896958607E-31, -1.000000000000000000, -1.224646799147353207E-16 ) ) ;
#115 = APPROVAL ( #162, 'UNSPECIFIED' ) ;
#116 = CARTESIAN_POINT ( 'NONE',  ( 2.199633243471174014E-14, 2.924531576190601603E-33, 6.299999999999999822 ) ) ;
#117 = CALENDAR_DATE ( 2021, 7, 10 ) ;
#118 = DIRECTION ( 'NONE',  ( 0.0000000000000000000, 1.000000000000000000, 0.0000000000000000000 ) ) ;
#119 = VERTEX_POINT ( 'NONE', #187 ) ;
#120 = ADVANCED_FACE ( 'NONE', ( #44 ), #206, .T. ) ;
#121 = AXIS2_PLACEMENT_3D ( 'NONE', #8, #25, #106 ) ;
#122 = CARTESIAN_POINT ( 'NONE',  ( 1.043952920314096810E-13, 0.4999999999999963363, 29.89999999999999858 ) ) ;
#123 = ADVANCED_FACE ( 'NONE', ( #27 ), #11, .F. ) ;
#124 = DIRECTION ( 'NONE',  ( 0.0000000000000000000, 1.000000000000000000, 0.0000000000000000000 ) ) ;
#125 = FACE_OUTER_BOUND ( 'NONE', #41, .T. ) ;
#126 = AXIS2_PLACEMENT_3D ( 'NONE', #150, #218, #61 ) ;
#127 = ORIENTED_EDGE ( 'NONE', *, *, #155, .T. ) ;
#128 = MECHANICAL_CONTEXT ( 'NONE', #16, 'mechanical' ) ;
#129 = PERSON_AND_ORGANIZATION ( #58, #137 ) ;
#130 = CARTESIAN_POINT ( 'NONE',  ( 0.0000000000000000000, 0.0000000000000000000, 0.0000000000000000000 ) ) ;
#131 = APPROVAL_ROLE ( '' ) ;
#132 = AXIS2_PLACEMENT_3D ( 'NONE', #53, #157, #124 ) ;
#133 = CARTESIAN_POINT ( 'NONE',  ( 2.199633243471174014E-14, 2.924531576190601603E-33, 6.299999999999999822 ) ) ;
#134 = CYLINDRICAL_SURFACE ( 'NONE', #18, 0.4999999999999986122 ) ;
#135 = VERTEX_POINT ( 'NONE', #122 ) ;
#136 = MANIFOLD_SOLID_BREP ( 'Corps-Déplacer/Copier1[2]', #172 ) ;
#137 = ORGANIZATION ( 'UNSPECIFIED', 'UNSPECIFIED', '' ) ;
#138 = ADVANCED_BREP_SHAPE_REPRESENTATION ( '36978', ( #66, #136, #121 ), #203 ) ;
#139 = CC_DESIGN_PERSON_AND_ORGANIZATION_ASSIGNMENT ( #177, #40, ( #189 ) ) ;
#140 = FACE_OUTER_BOUND ( 'NONE', #159, .T. ) ;
#141 = FACE_BOUND ( 'NONE', #74, .T. ) ;
#142 = DATE_TIME_ROLE ( 'creation_date' ) ;
#143 = CC_DESIGN_PERSON_AND_ORGANIZATION_ASSIGNMENT ( #175, #3, ( #97 ) ) ;
#144 = EDGE_LOOP ( 'NONE', ( #195 ) ) ;
#145 = PERSON_AND_ORGANIZATION ( #58, #137 ) ;
#146 = ORIENTED_EDGE ( 'NONE', *, *, #14, .T. ) ;
#147 = FACE_OUTER_BOUND ( 'NONE', #39, .T. ) ;
#148 = AXIS2_PLACEMENT_3D ( 'NONE', #196, #200, #62 ) ;
#149 = DIRECTION ( 'NONE',  ( 4.938281908685241784E-31, 1.000000000000000000, 1.390002785237832291E-16 ) ) ;
#150 = CARTESIAN_POINT ( 'NONE',  ( 2.342967486723828421E-14, -8.218023682960227072E-16, 6.710525588832579658 ) ) ;
#151 = DATE_AND_TIME ( #117, #171 ) ;
#152 = EDGE_CURVE ( 'NONE', #32, #32, #57, .T. ) ;
#153 = APPROVAL_PERSON_ORGANIZATION ( #129, #51, #98 ) ;
#154 = VERTEX_POINT ( 'NONE', #15 ) ;
#155 = EDGE_CURVE ( 'NONE', #154, #154, #192, .T. ) ;
#156 = LOCAL_TIME ( 15, 46, 59.00000000000000000, #56 ) ;
#157 = DIRECTION ( 'NONE',  ( -3.491481338843133355E-15, 1.224646799147353207E-16, -1.000000000000000000 ) ) ;
#158 =( NAMED_UNIT ( * ) PLANE_ANGLE_UNIT ( ) SI_UNIT ( $, .RADIAN. ) );
#159 = EDGE_LOOP ( 'NONE', ( #194 ) ) ;
#160 = CALENDAR_DATE ( 2021, 7, 10 ) ;
#161 = UNCERTAINTY_MEASURE_WITH_UNIT (LENGTH_MEASURE( 1.000000000000000082E-05 ), #191, 'distance_accuracy_value', 'NONE');
#162 = APPROVAL_STATUS ( 'not_yet_approved' ) ;
#163 = EDGE_CURVE ( 'NONE', #181, #181, #45, .T. ) ;
#164 = DIRECTION ( 'NONE',  ( 0.0000000000000000000, 1.000000000000000000, 0.0000000000000000000 ) ) ;
#165 = APPROVAL_DATE_TIME ( #111, #115 ) ;
#166 = DIRECTION ( 'NONE',  ( 3.491481338843133355E-15, -1.224646799147353207E-16, 1.000000000000000000 ) ) ;
#167 = SHAPE_DEFINITION_REPRESENTATION ( #67, #138 ) ;
#168 = DIRECTION ( 'NONE',  ( 3.491481338843133355E-15, -1.224646799147353207E-16, 1.000000000000000000 ) ) ;
#169 = ADVANCED_FACE ( 'NONE', ( #48 ), #13, .T. ) ;
#170 = CARTESIAN_POINT ( 'NONE',  ( 8.181785190463849867E-16, 0.3899999999999982370, 0.2343356414207501126 ) ) ;
#171 = LOCAL_TIME ( 15, 46, 59.00000000000000000, #64 ) ;
#172 = CLOSED_SHELL ( 'NONE', ( #120, #34, #169 ) ) ;
#173 = CC_DESIGN_APPROVAL ( #115, ( #43 ) ) ;
#174 = AXIS2_PLACEMENT_3D ( 'NONE', #185, #33, #84 ) ;
#175 = PERSON_AND_ORGANIZATION ( #58, #137 ) ;
#176 = CALENDAR_DATE ( 2021, 7, 10 ) ;
#177 = PERSON_AND_ORGANIZATION ( #58, #137 ) ;
#178 = DESIGN_CONTEXT ( 'detailed design', #42, 'design' ) ;
#179 = ORIENTED_EDGE ( 'NONE', *, *, #152, .T. ) ;
#180 = AXIS2_PLACEMENT_3D ( 'NONE', #130, #93, #212 ) ;
#181 = VERTEX_POINT ( 'NONE', #59 ) ;
#182 = CARTESIAN_POINT ( 'NONE',  ( 8.181785190463847895E-16, -2.869783931920634932E-17, 0.2343356414207500571 ) ) ;
#183 = DATE_AND_TIME ( #176, #156 ) ;
#184 = DIRECTION ( 'NONE',  ( -3.491481338843133355E-15, 1.224646799147353207E-16, -1.000000000000000000 ) ) ;
#185 = CARTESIAN_POINT ( 'NONE',  ( 2.342967486723828421E-14, -8.218023682960227072E-16, 6.710525588832579658 ) ) ;
#186 = CC_DESIGN_PERSON_AND_ORGANIZATION_ASSIGNMENT ( #78, #211, ( #22 ) ) ;
#187 = CARTESIAN_POINT ( 'NONE',  ( 1.047444401652940007E-13, 0.3999999999999963585, 30.00000000000000000 ) ) ;
#188 = ADVANCED_FACE ( 'NONE', ( #222, #141 ), #52, .T. ) ;
#189 = PRODUCT ( '36978', '36978', '', ( #128 ) ) ;
#190 = EDGE_LOOP ( 'NONE', ( #179 ) ) ;
#191 =( LENGTH_UNIT ( ) NAMED_UNIT ( * ) SI_UNIT ( .MILLI., .METRE. ) );
#192 = CIRCLE ( 'NONE', #91, 0.3899999999999987366 ) ;
#193 = CARTESIAN_POINT ( 'NONE',  ( 2.342967486723828421E-14, 0.4999999999999963363, 6.710525588832579658 ) ) ;
#194 = ORIENTED_EDGE ( 'NONE', *, *, #152, .F. ) ;
#195 = ORIENTED_EDGE ( 'NONE', *, *, #163, .T. ) ;
#196 = CARTESIAN_POINT ( 'NONE',  ( 1.047444401652940007E-13, -3.673940397442059178E-15, 30.00000000000000000 ) ) ;
#197 = CC_DESIGN_SECURITY_CLASSIFICATION ( #97, ( #22 ) ) ;
#198 = PERSON_AND_ORGANIZATION_ROLE ( 'creator' ) ;
#199 = DIRECTION ( 'NONE',  ( 3.491481338843133355E-15, -1.224646799147353207E-16, 1.000000000000000000 ) ) ;
#200 = DIRECTION ( 'NONE',  ( -3.491481338843133355E-15, 1.224646799147353207E-16, -1.000000000000000000 ) ) ;
#201 = CLOSED_SHELL ( 'NONE', ( #123, #70, #85, #188, #204 ) ) ;
#202 = EDGE_CURVE ( 'NONE', #23, #23, #6, .T. ) ;
#203 =( GEOMETRIC_REPRESENTATION_CONTEXT ( 3 ) GLOBAL_UNCERTAINTY_ASSIGNED_CONTEXT ( ( #161 ) ) GLOBAL_UNIT_ASSIGNED_CONTEXT ( ( #191, #158, #37 ) ) REPRESENTATION_CONTEXT ( 'NONE', 'WORKASPACE' ) );
#204 = ADVANCED_FACE ( 'NONE', ( #31 ), #100, .F. ) ;
#205 = DIRECTION ( 'NONE',  ( 4.275831445896958607E-31, 1.000000000000000000, 1.224646799147353207E-16 ) ) ;
#206 = CONICAL_SURFACE ( 'NONE', #38, 0.3899999999999982925, 1.029744258676649649 ) ;
#207 = COORDINATED_UNIVERSAL_TIME_OFFSET ( 1, 0, .AHEAD. ) ;
#208 = ORIENTED_EDGE ( 'NONE', *, *, #14, .F. ) ;
#209 = CC_DESIGN_APPROVAL ( #51, ( #97 ) ) ;
#210 = ORIENTED_EDGE ( 'NONE', *, *, #163, .F. ) ;
#211 = PERSON_AND_ORGANIZATION_ROLE ( 'creator' ) ;
#212 = DIRECTION ( 'NONE',  ( 4.275831445896959482E-31, 1.000000000000000000, 1.224646799147353207E-16 ) ) ;
#213 = FACE_OUTER_BOUND ( 'NONE', #107, .T. ) ;
#214 = APPROVAL_PERSON_ORGANIZATION ( #4, #215, #113 ) ;
#215 = APPROVAL ( #7, 'UNSPECIFIED' ) ;
#216 = DIRECTION ( 'NONE',  ( -3.491481338843133355E-15, 1.224646799147353207E-16, -1.000000000000000000 ) ) ;
#217 = APPROVAL_STATUS ( 'not_yet_approved' ) ;
#218 = DIRECTION ( 'NONE',  ( 3.491481338843133355E-15, -1.224646799147353207E-16, 1.000000000000000000 ) ) ;
#219 = CIRCLE ( 'NONE', #132, 0.5000000000000000000 ) ;
#220 = AXIS2_PLACEMENT_3D ( 'NONE', #116, #168, #114 ) ;
#221 = CARTESIAN_POINT ( 'NONE',  ( 1.047444401652940007E-13, 2.999519565323660135E-33, 30.00000000000000000 ) ) ;
#222 = FACE_OUTER_BOUND ( 'NONE', #36, .T. ) ;
#223 = LOCAL_TIME ( 15, 46, 59.00000000000000000, #89 ) ;
ENDSEC;
END-ISO-10303-21;
