ISO-10303-21;
HEADER;
FILE_DESCRIPTION (( 'STEP AP203' ),
    '1' );
FILE_NAME ('36976.step',
    '2021-10-07T13:46:59',
    ( '' ),
    ( '' ),
    'SwSTEP 2.0',
    'SolidWorks 2019',
    '' );
FILE_SCHEMA (( 'CONFIG_CONTROL_DESIGN' ));
ENDSEC;

DATA;
#1 = CC_DESIGN_APPROVAL ( #160, ( #206 ) ) ;
#2 = DIRECTION ( 'NONE',  ( 0.0000000000000000000, 0.0000000000000000000, 1.000000000000000000 ) ) ;
#3 = ADVANCED_FACE ( 'NONE', ( #181 ), #30, .T. ) ;
#4 = PERSON_AND_ORGANIZATION ( #13, #19 ) ;
#5 = DATE_TIME_ROLE ( 'creation_date' ) ;
#6 = APPROVAL_ROLE ( '' ) ;
#7 = CLOSED_SHELL ( 'NONE', ( #65, #135, #3 ) ) ;
#8 = EDGE_LOOP ( 'NONE', ( #215 ) ) ;
#9 = AXIS2_PLACEMENT_3D ( 'NONE', #53, #221, #186 ) ;
#10 = ORIENTED_EDGE ( 'NONE', *, *, #117, .F. ) ;
#11 = ORIENTED_EDGE ( 'NONE', *, *, #31, .F. ) ;
#12 = DIRECTION ( 'NONE',  ( 3.491481338843133355E-15, -1.224646799147353207E-16, 1.000000000000000000 ) ) ;
#13 = PERSON ( 'UNSPECIFIED', 'UNSPECIFIED', 'UNSPECIFIED', ('UNSPECIFIED'), ('UNSPECIFIED'), ('UNSPECIFIED') ) ;
#14 = CC_DESIGN_PERSON_AND_ORGANIZATION_ASSIGNMENT ( #4, #24, ( #81 ) ) ;
#15 = DIRECTION ( 'NONE',  ( 0.0000000000000000000, 1.000000000000000000, 0.0000000000000000000 ) ) ;
#16 = APPLICATION_CONTEXT ( 'configuration controlled 3d designs of mechanical parts and assemblies' ) ;
#17 = DIRECTION ( 'NONE',  ( 4.275831445896958607E-31, 1.000000000000000000, 1.224646799147353207E-16 ) ) ;
#18 = CARTESIAN_POINT ( 'NONE',  ( 2.199633243471174014E-14, 0.3799999999999981726, 6.299999999999999822 ) ) ;
#19 = ORGANIZATION ( 'UNSPECIFIED', 'UNSPECIFIED', '' ) ;
#20 = DIRECTION ( 'NONE',  ( 3.491481338843133355E-15, -1.224646799147353207E-16, 1.000000000000000000 ) ) ;
#21 = FACE_OUTER_BOUND ( 'NONE', #111, .T. ) ;
#22 = APPROVAL_ROLE ( '' ) ;
#23 = PERSON_AND_ORGANIZATION_ROLE ( 'design_owner' ) ;
#24 = PERSON_AND_ORGANIZATION_ROLE ( 'creator' ) ;
#25 = EDGE_CURVE ( 'NONE', #219, #219, #59, .T. ) ;
#26 = APPROVAL_DATE_TIME ( #40, #164 ) ;
#27 = AXIS2_PLACEMENT_3D ( 'NONE', #51, #222, #128 ) ;
#28 = APPLICATION_CONTEXT ( 'configuration controlled 3d designs of mechanical parts and assemblies' ) ;
#29 = AXIS2_PLACEMENT_3D ( 'NONE', #68, #101, #100 ) ;
#30 = PLANE ( 'NONE',  #42 ) ;
#31 = EDGE_CURVE ( 'NONE', #200, #200, #126, .T. ) ;
#32 = LOCAL_TIME ( 15, 46, 59.00000000000000000, #193 ) ;
#33 = PLANE ( 'NONE',  #209 ) ;
#34 = DIRECTION ( 'NONE',  ( -5.068236695755906134E-31, -1.000000000000000000, -1.426581805901985798E-16 ) ) ;
#35 = FACE_OUTER_BOUND ( 'NONE', #157, .T. ) ;
#36 = CARTESIAN_POINT ( 'NONE',  ( 1.043952920314096810E-13, -3.661693929450586610E-15, 29.89999999999999858 ) ) ;
#37 = APPLICATION_PROTOCOL_DEFINITION ( 'international standard', 'config_control_design', 1994, #16 ) ;
#38 = CARTESIAN_POINT ( 'NONE',  ( 0.0000000000000000000, 0.0000000000000000000, 0.0000000000000000000 ) ) ;
#39 = CIRCLE ( 'NONE', #9, 0.3799999999999989497 ) ;
#40 = DATE_AND_TIME ( #122, #32 ) ;
#41 =( NAMED_UNIT ( * ) PLANE_ANGLE_UNIT ( ) SI_UNIT ( $, .RADIAN. ) );
#42 = AXIS2_PLACEMENT_3D ( 'NONE', #217, #12, #177 ) ;
#43 = APPROVAL ( #57, 'UNSPECIFIED' ) ;
#44 = ORIENTED_EDGE ( 'NONE', *, *, #25, .T. ) ;
#45 = EDGE_LOOP ( 'NONE', ( #10 ) ) ;
#46 = SECURITY_CLASSIFICATION ( '', '', #105 ) ;
#47 = ORIENTED_EDGE ( 'NONE', *, *, #117, .T. ) ;
#48 = EDGE_LOOP ( 'NONE', ( #194 ) ) ;
#49 = DIRECTION ( 'NONE',  ( 0.0000000000000000000, 1.000000000000000000, 0.0000000000000000000 ) ) ;
#50 = PRODUCT_RELATED_PRODUCT_CATEGORY ( 'detail', '', ( #125 ) ) ;
#51 = CARTESIAN_POINT ( 'NONE',  ( 7.971995826605798288E-16, -2.796199728538053617E-17, 0.2283270352304743733 ) ) ;
#52 = CARTESIAN_POINT ( 'NONE',  ( 2.199633243471174014E-14, 2.849543587057510228E-33, 6.299999999999999822 ) ) ;
#53 = CARTESIAN_POINT ( 'NONE',  ( 2.199633243471174014E-14, -7.715274834628325378E-16, 6.299999999999999822 ) ) ;
#54 = PERSON_AND_ORGANIZATION ( #13, #19 ) ;
#55 = PERSON_AND_ORGANIZATION ( #13, #19 ) ;
#56 = VERTEX_POINT ( 'NONE', #211 ) ;
#57 = APPROVAL_STATUS ( 'not_yet_approved' ) ;
#58 = ADVANCED_FACE ( 'NONE', ( #70, #21 ), #158, .T. ) ;
#59 = CIRCLE ( 'NONE', #27, 0.3799999999999983391 ) ;
#60 = EDGE_LOOP ( 'NONE', ( #61 ) ) ;
#61 = ORIENTED_EDGE ( 'NONE', *, *, #203, .F. ) ;
#62 = AXIS2_PLACEMENT_3D ( 'NONE', #205, #112, #49 ) ;
#63 = ORIENTED_EDGE ( 'NONE', *, *, #103, .T. ) ;
#64 = FACE_OUTER_BOUND ( 'NONE', #178, .T. ) ;
#65 = ADVANCED_FACE ( 'NONE', ( #97 ), #74, .T. ) ;
#66 = DIRECTION ( 'NONE',  ( 3.491481338843133355E-15, -1.224646799147353207E-16, 1.000000000000000000 ) ) ;
#67 = LOCAL_TIME ( 15, 46, 59.00000000000000000, #75 ) ;
#68 = CARTESIAN_POINT ( 'NONE',  ( 0.0000000000000000000, 0.0000000000000000000, 0.0000000000000000000 ) ) ;
#69 = DIRECTION ( 'NONE',  ( 0.0000000000000000000, 1.000000000000000000, 0.0000000000000000000 ) ) ;
#70 = FACE_BOUND ( 'NONE', #45, .T. ) ;
#71 = AXIS2_PLACEMENT_3D ( 'NONE', #132, #147, #218 ) ;
#72 = APPROVAL_ROLE ( '' ) ;
#73 =( LENGTH_UNIT ( ) NAMED_UNIT ( * ) SI_UNIT ( .MILLI., .METRE. ) );
#74 = CONICAL_SURFACE ( 'NONE', #220, 0.3799999999999983391, 1.029744258676649871 ) ;
#75 = COORDINATED_UNIVERSAL_TIME_OFFSET ( 1, 0, .AHEAD. ) ;
#76 =( NAMED_UNIT ( * ) SI_UNIT ( $, .STERADIAN. ) SOLID_ANGLE_UNIT ( ) );
#77 = LOCAL_TIME ( 15, 46, 59.00000000000000000, #142 ) ;
#78 = APPROVAL_DATE_TIME ( #214, #43 ) ;
#79 = CC_DESIGN_PERSON_AND_ORGANIZATION_ASSIGNMENT ( #154, #92, ( #46 ) ) ;
#80 = EDGE_LOOP ( 'NONE', ( #11 ) ) ;
#81 = PRODUCT_DEFINITION_FORMATION_WITH_SPECIFIED_SOURCE ( 'ANY', '', #125, .NOT_KNOWN. ) ;
#82 = AXIS2_PLACEMENT_3D ( 'NONE', #84, #116, #15 ) ;
#83 = DIRECTION ( 'NONE',  ( -4.275831445896958607E-31, -1.000000000000000000, -1.224646799147353207E-16 ) ) ;
#84 = CARTESIAN_POINT ( 'NONE',  ( 2.199633243471174014E-14, -7.715274834628325378E-16, 6.299999999999999822 ) ) ;
#85 = VERTEX_POINT ( 'NONE', #149 ) ;
#86 = CARTESIAN_POINT ( 'NONE',  ( 7.971995826605798288E-16, -2.796199728538053617E-17, 0.2283270352304743733 ) ) ;
#87 = CC_DESIGN_PERSON_AND_ORGANIZATION_ASSIGNMENT ( #54, #172, ( #81 ) ) ;
#88 = CARTESIAN_POINT ( 'NONE',  ( 0.0000000000000000000, 0.0000000000000000000, 0.0000000000000000000 ) ) ;
#89 = MECHANICAL_CONTEXT ( 'NONE', #16, 'mechanical' ) ;
#90 = APPLICATION_PROTOCOL_DEFINITION ( 'international standard', 'config_control_design', 1994, #28 ) ;
#91 = CALENDAR_DATE ( 2021, 7, 10 ) ;
#92 = PERSON_AND_ORGANIZATION_ROLE ( 'classification_officer' ) ;
#93 = CC_DESIGN_APPROVAL ( #43, ( #46 ) ) ;
#94 = ORIENTED_EDGE ( 'NONE', *, *, #203, .T. ) ;
#95 = ORIENTED_EDGE ( 'NONE', *, *, #103, .F. ) ;
#96 = APPROVAL_PERSON_ORGANIZATION ( #55, #160, #22 ) ;
#97 = FACE_OUTER_BOUND ( 'NONE', #127, .T. ) ;
#98 = DIRECTION ( 'NONE',  ( -3.491481338843133355E-15, 1.224646799147353207E-16, -1.000000000000000000 ) ) ;
#99 = CARTESIAN_POINT ( 'NONE',  ( 1.047444401652940007E-13, 2.999519565323660135E-33, 30.00000000000000000 ) ) ;
#100 = DIRECTION ( 'NONE',  ( 4.275831445896958607E-31, 1.000000000000000000, 1.224646799147353207E-16 ) ) ;
#101 = DIRECTION ( 'NONE',  ( -3.491481338843133355E-15, 1.224646799147353207E-16, -1.000000000000000000 ) ) ;
#102 = DATE_AND_TIME ( #138, #139 ) ;
#103 = EDGE_CURVE ( 'NONE', #165, #165, #143, .T. ) ;
#104 = CALENDAR_DATE ( 2021, 7, 10 ) ;
#105 = SECURITY_CLASSIFICATION_LEVEL ( 'unclassified' ) ;
#106 = DATE_AND_TIME ( #104, #67 ) ;
#107 = CALENDAR_DATE ( 2021, 7, 10 ) ;
#108 = APPROVAL_PERSON_ORGANIZATION ( #173, #164, #72 ) ;
#109 = ORIENTED_EDGE ( 'NONE', *, *, #31, .T. ) ;
#110 = DESIGN_CONTEXT ( 'detailed design', #28, 'design' ) ;
#111 = EDGE_LOOP ( 'NONE', ( #94 ) ) ;
#112 = DIRECTION ( 'NONE',  ( -3.491481338843133355E-15, 1.224646799147353207E-16, -1.000000000000000000 ) ) ;
#113 = CYLINDRICAL_SURFACE ( 'NONE', #134, 0.4999999999999986122 ) ;
#114 = MANIFOLD_SOLID_BREP ( 'Corps-Déplacer/Copier1[1]', #192 ) ;
#115 = CARTESIAN_POINT ( 'NONE',  ( 1.043952920314096810E-13, 0.4999999999999963363, 29.89999999999999858 ) ) ;
#116 = DIRECTION ( 'NONE',  ( -3.491481338843133355E-15, 1.224646799147353207E-16, -1.000000000000000000 ) ) ;
#117 = EDGE_CURVE ( 'NONE', #85, #85, #39, .T. ) ;
#118 = FACE_OUTER_BOUND ( 'NONE', #144, .T. ) ;
#119 = DATE_AND_TIME ( #91, #77 ) ;
#120 = APPROVAL_STATUS ( 'not_yet_approved' ) ;
#121 = CC_DESIGN_SECURITY_CLASSIFICATION ( #46, ( #81 ) ) ;
#122 = CALENDAR_DATE ( 2021, 7, 10 ) ;
#123 = ADVANCED_BREP_SHAPE_REPRESENTATION ( '36976', ( #114, #136, #145 ), #216 ) ;
#124 = COORDINATED_UNIVERSAL_TIME_OFFSET ( 1, 0, .AHEAD. ) ;
#125 = PRODUCT ( '36976', '36976', '', ( #89 ) ) ;
#126 = CIRCLE ( 'NONE', #204, 0.5000000000000000000 ) ;
#127 = EDGE_LOOP ( 'NONE', ( #44 ) ) ;
#128 = DIRECTION ( 'NONE',  ( 5.068236695755906134E-31, 1.000000000000000000, 1.426581805901985798E-16 ) ) ;
#129 = LOCAL_TIME ( 15, 46, 59.00000000000000000, #124 ) ;
#130 = CARTESIAN_POINT ( 'NONE',  ( 7.971995826605800261E-16, 0.3799999999999982836, 0.2283270352304744288 ) ) ;
#131 = PLANE ( 'NONE',  #155 ) ;
#132 = CARTESIAN_POINT ( 'NONE',  ( 1.047444401652940007E-13, -3.673940397442059178E-15, 30.00000000000000000 ) ) ;
#133 = DIRECTION ( 'NONE',  ( 0.0000000000000000000, 1.000000000000000000, 0.0000000000000000000 ) ) ;
#134 = AXIS2_PLACEMENT_3D ( 'NONE', #88, #198, #202 ) ;
#135 = ADVANCED_FACE ( 'NONE', ( #163, #35 ), #151, .T. ) ;
#136 = MANIFOLD_SOLID_BREP ( 'Corps-Déplacer/Copier1[2]', #7 ) ;
#137 = PERSON_AND_ORGANIZATION ( #13, #19 ) ;
#138 = CALENDAR_DATE ( 2021, 7, 10 ) ;
#139 = LOCAL_TIME ( 15, 46, 59.00000000000000000, #190 ) ;
#140 = PERSON_AND_ORGANIZATION ( #13, #19 ) ;
#141 = ADVANCED_FACE ( 'NONE', ( #118 ), #131, .F. ) ;
#142 = COORDINATED_UNIVERSAL_TIME_OFFSET ( 1, 0, .AHEAD. ) ;
#143 = CIRCLE ( 'NONE', #82, 0.3799999999999989497 ) ;
#144 = EDGE_LOOP ( 'NONE', ( #47 ) ) ;
#145 = AXIS2_PLACEMENT_3D ( 'NONE', #38, #2, #169 ) ;
#146 = ADVANCED_FACE ( 'NONE', ( #166, #64 ), #113, .T. ) ;
#147 = DIRECTION ( 'NONE',  ( -3.491481338843133355E-15, 1.224646799147353207E-16, -1.000000000000000000 ) ) ;
#148 = FACE_BOUND ( 'NONE', #48, .T. ) ;
#149 = CARTESIAN_POINT ( 'NONE',  ( 2.199633243471174014E-14, 0.3799999999999981726, 6.299999999999999822 ) ) ;
#150 = DIRECTION ( 'NONE',  ( -3.491481338843133355E-15, 1.224646799147353207E-16, -1.000000000000000000 ) ) ;
#151 = CYLINDRICAL_SURFACE ( 'NONE', #29, 0.3799999999999986167 ) ;
#152 = PERSON_AND_ORGANIZATION_ROLE ( 'creator' ) ;
#153 = CC_DESIGN_DATE_AND_TIME_ASSIGNMENT ( #106, #5, ( #206 ) ) ;
#154 = PERSON_AND_ORGANIZATION ( #13, #19 ) ;
#155 = AXIS2_PLACEMENT_3D ( 'NONE', #52, #167, #83 ) ;
#156 = CC_DESIGN_DATE_AND_TIME_ASSIGNMENT ( #119, #189, ( #46 ) ) ;
#157 = EDGE_LOOP ( 'NONE', ( #63 ) ) ;
#158 = CONICAL_SURFACE ( 'NONE', #175, 0.4999999999999971689, 0.2617993877991429130 ) ;
#159 = ORIENTED_EDGE ( 'NONE', *, *, #25, .F. ) ;
#160 = APPROVAL ( #120, 'UNSPECIFIED' ) ;
#161 = CONICAL_SURFACE ( 'NONE', #71, 0.4000000000000000222, 0.7853981633974512766 ) ;
#162 = CARTESIAN_POINT ( 'NONE',  ( 2.355997872474070075E-14, -8.263728123717674473E-16, 6.747846096908270752 ) ) ;
#163 = FACE_OUTER_BOUND ( 'NONE', #197, .T. ) ;
#164 = APPROVAL ( #174, 'UNSPECIFIED' ) ;
#165 = VERTEX_POINT ( 'NONE', #18 ) ;
#166 = FACE_OUTER_BOUND ( 'NONE', #60, .T. ) ;
#167 = DIRECTION ( 'NONE',  ( 3.491481338843133355E-15, -1.224646799147353207E-16, 1.000000000000000000 ) ) ;
#168 = ADVANCED_FACE ( 'NONE', ( #182, #148 ), #161, .T. ) ;
#169 = DIRECTION ( 'NONE',  ( 1.000000000000000000, 0.0000000000000000000, 0.0000000000000000000 ) ) ;
#170 = APPROVAL_DATE_TIME ( #102, #160 ) ;
#171 = CIRCLE ( 'NONE', #180, 0.4000000000000000222 ) ;
#172 = PERSON_AND_ORGANIZATION_ROLE ( 'design_supplier' ) ;
#173 = PERSON_AND_ORGANIZATION ( #13, #19 ) ;
#174 = APPROVAL_STATUS ( 'not_yet_approved' ) ;
#175 = AXIS2_PLACEMENT_3D ( 'NONE', #162, #20, #185 ) ;
#176 = EDGE_CURVE ( 'NONE', #201, #201, #171, .T. ) ;
#177 = DIRECTION ( 'NONE',  ( -4.275831445896958607E-31, -1.000000000000000000, -1.224646799147353207E-16 ) ) ;
#178 = EDGE_LOOP ( 'NONE', ( #109 ) ) ;
#179 = SHAPE_DEFINITION_REPRESENTATION ( #212, #123 ) ;
#180 = AXIS2_PLACEMENT_3D ( 'NONE', #188, #223, #133 ) ;
#181 = FACE_OUTER_BOUND ( 'NONE', #196, .T. ) ;
#182 = FACE_OUTER_BOUND ( 'NONE', #80, .T. ) ;
#183 = CC_DESIGN_APPROVAL ( #164, ( #81 ) ) ;
#184 = FACE_OUTER_BOUND ( 'NONE', #8, .T. ) ;
#185 = DIRECTION ( 'NONE',  ( 0.0000000000000000000, -1.000000000000000000, 0.0000000000000000000 ) ) ;
#186 = DIRECTION ( 'NONE',  ( 0.0000000000000000000, 1.000000000000000000, 0.0000000000000000000 ) ) ;
#187 = CIRCLE ( 'NONE', #62, 0.4999999999999971689 ) ;
#188 = CARTESIAN_POINT ( 'NONE',  ( 1.047444401652940007E-13, -3.673940397442059178E-15, 30.00000000000000000 ) ) ;
#189 = DATE_TIME_ROLE ( 'classification_date' ) ;
#190 = COORDINATED_UNIVERSAL_TIME_OFFSET ( 1, 0, .AHEAD. ) ;
#191 = CC_DESIGN_PERSON_AND_ORGANIZATION_ASSIGNMENT ( #137, #23, ( #125 ) ) ;
#192 = CLOSED_SHELL ( 'NONE', ( #141, #58, #146, #168, #213 ) ) ;
#193 = COORDINATED_UNIVERSAL_TIME_OFFSET ( 1, 0, .AHEAD. ) ;
#194 = ORIENTED_EDGE ( 'NONE', *, *, #176, .T. ) ;
#195 = CC_DESIGN_PERSON_AND_ORGANIZATION_ASSIGNMENT ( #140, #152, ( #206 ) ) ;
#196 = EDGE_LOOP ( 'NONE', ( #95 ) ) ;
#197 = EDGE_LOOP ( 'NONE', ( #159 ) ) ;
#198 = DIRECTION ( 'NONE',  ( -3.491481338843133355E-15, 1.224646799147353207E-16, -1.000000000000000000 ) ) ;
#199 = APPROVAL_PERSON_ORGANIZATION ( #208, #43, #6 ) ;
#200 = VERTEX_POINT ( 'NONE', #115 ) ;
#201 = VERTEX_POINT ( 'NONE', #207 ) ;
#202 = DIRECTION ( 'NONE',  ( 4.275831445896959482E-31, 1.000000000000000000, 1.224646799147353207E-16 ) ) ;
#203 = EDGE_CURVE ( 'NONE', #56, #56, #187, .T. ) ;
#204 = AXIS2_PLACEMENT_3D ( 'NONE', #36, #150, #69 ) ;
#205 = CARTESIAN_POINT ( 'NONE',  ( 2.355997872474070075E-14, -8.263728123717674473E-16, 6.747846096908270752 ) ) ;
#206 = PRODUCT_DEFINITION ( 'UNKNOWN', '', #81, #110 ) ;
#207 = CARTESIAN_POINT ( 'NONE',  ( 1.047444401652940007E-13, 0.3999999999999963585, 30.00000000000000000 ) ) ;
#208 = PERSON_AND_ORGANIZATION ( #13, #19 ) ;
#209 = AXIS2_PLACEMENT_3D ( 'NONE', #99, #98, #17 ) ;
#210 = UNCERTAINTY_MEASURE_WITH_UNIT (LENGTH_MEASURE( 1.000000000000000082E-05 ), #73, 'distance_accuracy_value', 'NONE');
#211 = CARTESIAN_POINT ( 'NONE',  ( 2.355997872474070075E-14, 0.4999999999999963363, 6.747846096908270752 ) ) ;
#212 = PRODUCT_DEFINITION_SHAPE ( 'NONE', 'NONE',  #206 ) ;
#213 = ADVANCED_FACE ( 'NONE', ( #184 ), #33, .F. ) ;
#214 = DATE_AND_TIME ( #107, #129 ) ;
#215 = ORIENTED_EDGE ( 'NONE', *, *, #176, .F. ) ;
#216 =( GEOMETRIC_REPRESENTATION_CONTEXT ( 3 ) GLOBAL_UNCERTAINTY_ASSIGNED_CONTEXT ( ( #210 ) ) GLOBAL_UNIT_ASSIGNED_CONTEXT ( ( #73, #41, #76 ) ) REPRESENTATION_CONTEXT ( 'NONE', 'WORKASPACE' ) );
#217 = CARTESIAN_POINT ( 'NONE',  ( 2.199633243471174014E-14, 2.849543587057510228E-33, 6.299999999999999822 ) ) ;
#218 = DIRECTION ( 'NONE',  ( 0.0000000000000000000, 1.000000000000000000, 0.0000000000000000000 ) ) ;
#219 = VERTEX_POINT ( 'NONE', #130 ) ;
#220 = AXIS2_PLACEMENT_3D ( 'NONE', #86, #66, #34 ) ;
#221 = DIRECTION ( 'NONE',  ( -3.491481338843133355E-15, 1.224646799147353207E-16, -1.000000000000000000 ) ) ;
#222 = DIRECTION ( 'NONE',  ( -3.491481338843133355E-15, 1.224646799147353207E-16, -1.000000000000000000 ) ) ;
#223 = DIRECTION ( 'NONE',  ( -3.491481338843133355E-15, 1.224646799147353207E-16, -1.000000000000000000 ) ) ;
ENDSEC;
END-ISO-10303-21;
