ISO-10303-21;
HEADER;
FILE_DESCRIPTION (( 'STEP AP203' ),
    '1' );
FILE_NAME ('36975.step',
    '2021-10-07T13:46:58',
    ( '' ),
    ( '' ),
    'SwSTEP 2.0',
    'SolidWorks 2019',
    '' );
FILE_SCHEMA (( 'CONFIG_CONTROL_DESIGN' ));
ENDSEC;

DATA;
#1 = EDGE_LOOP ( 'NONE', ( #205 ) ) ;
#2 = CONICAL_SURFACE ( 'NONE', #18, 0.4999999999999970579, 0.2617993877991424689 ) ;
#3 = SHAPE_DEFINITION_REPRESENTATION ( #87, #197 ) ;
#4 = ADVANCED_FACE ( 'NONE', ( #206, #61 ), #127, .T. ) ;
#5 = ORIENTED_EDGE ( 'NONE', *, *, #74, .F. ) ;
#6 = CARTESIAN_POINT ( 'NONE',  ( 2.118109371630171252E-14, -7.429327584693248882E-16, 6.066506350946114345 ) ) ;
#7 = CIRCLE ( 'NONE', #150, 0.3749999999999984457 ) ;
#8 = CARTESIAN_POINT ( 'NONE',  ( 7.867101144676779401E-16, 0.3749999999999983902, 0.2253227321353366841 ) ) ;
#9 = PRODUCT_DEFINITION_FORMATION_WITH_SPECIFIED_SOURCE ( 'ANY', '', #175, .NOT_KNOWN. ) ;
#10 = CC_DESIGN_PERSON_AND_ORGANIZATION_ASSIGNMENT ( #184, #90, ( #175 ) ) ;
#11 = VERTEX_POINT ( 'NONE', #84 ) ;
#12 = DIRECTION ( 'NONE',  ( -4.275831445896958607E-31, -1.000000000000000000, -1.224646799147353207E-16 ) ) ;
#13 = DIRECTION ( 'NONE',  ( 4.275831445896958607E-31, 1.000000000000000000, 1.224646799147353207E-16 ) ) ;
#14 = CC_DESIGN_DATE_AND_TIME_ASSIGNMENT ( #107, #185, ( #85 ) ) ;
#15 = PERSON_AND_ORGANIZATION ( #111, #59 ) ;
#16 = PERSON_AND_ORGANIZATION ( #111, #59 ) ;
#17 = APPROVAL_STATUS ( 'not_yet_approved' ) ;
#18 = AXIS2_PLACEMENT_3D ( 'NONE', #6, #194, #98 ) ;
#19 =( LENGTH_UNIT ( ) NAMED_UNIT ( * ) SI_UNIT ( .MILLI., .METRE. ) );
#20 = EDGE_LOOP ( 'NONE', ( #110 ) ) ;
#21 = APPLICATION_CONTEXT ( 'configuration controlled 3d designs of mechanical parts and assemblies' ) ;
#22 = EDGE_LOOP ( 'NONE', ( #141 ) ) ;
#23 = ORIENTED_EDGE ( 'NONE', *, *, #130, .T. ) ;
#24 = CC_DESIGN_DATE_AND_TIME_ASSIGNMENT ( #36, #173, ( #211 ) ) ;
#25 = FACE_OUTER_BOUND ( 'NONE', #145, .T. ) ;
#26 = DIRECTION ( 'NONE',  ( 0.0000000000000000000, 1.000000000000000000, 0.0000000000000000000 ) ) ;
#27 = AXIS2_PLACEMENT_3D ( 'NONE', #65, #132, #112 ) ;
#28 = CARTESIAN_POINT ( 'NONE',  ( 1.043952920314096810E-13, -3.661693929450586610E-15, 29.89999999999999858 ) ) ;
#29 = CC_DESIGN_APPROVAL ( #213, ( #211 ) ) ;
#30 = FACE_BOUND ( 'NONE', #20, .T. ) ;
#31 = DIRECTION ( 'NONE',  ( 0.0000000000000000000, 1.000000000000000000, 0.0000000000000000000 ) ) ;
#32 = ADVANCED_FACE ( 'NONE', ( #43 ), #62, .F. ) ;
#33 = APPROVAL_STATUS ( 'not_yet_approved' ) ;
#34 = AXIS2_PLACEMENT_3D ( 'NONE', #68, #135, #199 ) ;
#35 = APPROVAL_PERSON_ORGANIZATION ( #16, #213, #155 ) ;
#36 = DATE_AND_TIME ( #204, #203 ) ;
#37 = CARTESIAN_POINT ( 'NONE',  ( 1.043952920314096810E-13, 0.4999999999999963363, 29.89999999999999858 ) ) ;
#38 = APPROVAL ( #221, 'UNSPECIFIED' ) ;
#39 = AXIS2_PLACEMENT_3D ( 'NONE', #28, #169, #214 ) ;
#40 = APPROVAL_DATE_TIME ( #220, #38 ) ;
#41 = LOCAL_TIME ( 15, 46, 58.00000000000000000, #139 ) ;
#42 = EDGE_LOOP ( 'NONE', ( #75 ) ) ;
#43 = FACE_OUTER_BOUND ( 'NONE', #208, .T. ) ;
#44 = CIRCLE ( 'NONE', #171, 0.3749999999999992784 ) ;
#45 = CARTESIAN_POINT ( 'NONE',  ( 1.955229549752154679E-14, 0.3749999999999986122, 5.599999999999999645 ) ) ;
#46 = MANIFOLD_SOLID_BREP ( 'Corps-Déplacer/Copier1[2]', #53 ) ;
#47 = DIRECTION ( 'NONE',  ( 5.135813185032650545E-31, 1.000000000000000000, 1.445602896647345326E-16 ) ) ;
#48 = AXIS2_PLACEMENT_3D ( 'NONE', #81, #117, #183 ) ;
#49 = CARTESIAN_POINT ( 'NONE',  ( 1.047444401652940007E-13, -3.673940397442059178E-15, 30.00000000000000000 ) ) ;
#50 = FACE_OUTER_BOUND ( 'NONE', #42, .T. ) ;
#51 = DIRECTION ( 'NONE',  ( 0.0000000000000000000, 1.000000000000000000, 0.0000000000000000000 ) ) ;
#52 = COORDINATED_UNIVERSAL_TIME_OFFSET ( 1, 0, .AHEAD. ) ;
#53 = CLOSED_SHELL ( 'NONE', ( #97, #4, #190 ) ) ;
#54 = CC_DESIGN_PERSON_AND_ORGANIZATION_ASSIGNMENT ( #15, #201, ( #9 ) ) ;
#55 = PERSON_AND_ORGANIZATION ( #111, #59 ) ;
#56 = DATE_AND_TIME ( #73, #188 ) ;
#57 = PERSON_AND_ORGANIZATION ( #111, #59 ) ;
#58 = CONICAL_SURFACE ( 'NONE', #27, 0.4000000000000000222, 0.7853981633974512766 ) ;
#59 = ORGANIZATION ( 'UNSPECIFIED', 'UNSPECIFIED', '' ) ;
#60 = DATE_AND_TIME ( #95, #158 ) ;
#61 = FACE_OUTER_BOUND ( 'NONE', #22, .T. ) ;
#62 = PLANE ( 'NONE',  #66 ) ;
#63 = DESIGN_CONTEXT ( 'detailed design', #21, 'design' ) ;
#64 = DIRECTION ( 'NONE',  ( -3.491481338843133355E-15, 1.224646799147353207E-16, -1.000000000000000000 ) ) ;
#65 = CARTESIAN_POINT ( 'NONE',  ( 1.047444401652940007E-13, -3.673940397442059178E-15, 30.00000000000000000 ) ) ;
#66 = AXIS2_PLACEMENT_3D ( 'NONE', #104, #146, #13 ) ;
#67 = CARTESIAN_POINT ( 'NONE',  ( 7.867101144676777429E-16, -2.759407626846764809E-17, 0.2253227321353366286 ) ) ;
#68 = CARTESIAN_POINT ( 'NONE',  ( 7.867101144676777429E-16, -2.759407626846764809E-17, 0.2253227321353366286 ) ) ;
#69 = PERSON_AND_ORGANIZATION ( #111, #59 ) ;
#70 = AXIS2_PLACEMENT_3D ( 'NONE', #212, #180, #51 ) ;
#71 = COORDINATED_UNIVERSAL_TIME_OFFSET ( 1, 0, .AHEAD. ) ;
#72 = APPROVAL_ROLE ( '' ) ;
#73 = CALENDAR_DATE ( 2021, 7, 10 ) ;
#74 = EDGE_CURVE ( 'NONE', #210, #210, #44, .T. ) ;
#75 = ORIENTED_EDGE ( 'NONE', *, *, #177, .F. ) ;
#76 = ADVANCED_FACE ( 'NONE', ( #116 ), #181, .F. ) ;
#77 = ORIENTED_EDGE ( 'NONE', *, *, #93, .F. ) ;
#78 = AXIS2_PLACEMENT_3D ( 'NONE', #176, #156, #152 ) ;
#79 = EDGE_LOOP ( 'NONE', ( #77 ) ) ;
#80 = EDGE_LOOP ( 'NONE', ( #125 ) ) ;
#81 = CARTESIAN_POINT ( 'NONE',  ( 1.955229549752154679E-14, 2.812049592490967277E-33, 5.599999999999999645 ) ) ;
#82 = AXIS2_PLACEMENT_3D ( 'NONE', #134, #182, #165 ) ;
#83 = VERTEX_POINT ( 'NONE', #147 ) ;
#84 = CARTESIAN_POINT ( 'NONE',  ( 2.118109371630171252E-14, 0.4999999999999963363, 6.066506350946114345 ) ) ;
#85 = PRODUCT_DEFINITION ( 'UNKNOWN', '', #9, #63 ) ;
#86 = CARTESIAN_POINT ( 'NONE',  ( 2.118109371630171252E-14, -7.429327584693248882E-16, 6.066506350946114345 ) ) ;
#87 = PRODUCT_DEFINITION_SHAPE ( 'NONE', 'NONE',  #85 ) ;
#88 = CC_DESIGN_PERSON_AND_ORGANIZATION_ASSIGNMENT ( #55, #174, ( #211 ) ) ;
#89 = AXIS2_PLACEMENT_3D ( 'NONE', #196, #215, #12 ) ;
#90 = PERSON_AND_ORGANIZATION_ROLE ( 'design_owner' ) ;
#91 = ADVANCED_FACE ( 'NONE', ( #170, #101 ), #148, .T. ) ;
#92 = PERSON_AND_ORGANIZATION_ROLE ( 'creator' ) ;
#93 = EDGE_CURVE ( 'NONE', #99, #99, #7, .T. ) ;
#94 = ORIENTED_EDGE ( 'NONE', *, *, #93, .T. ) ;
#95 = CALENDAR_DATE ( 2021, 7, 10 ) ;
#96 = CARTESIAN_POINT ( 'NONE',  ( 0.0000000000000000000, 0.0000000000000000000, 0.0000000000000000000 ) ) ;
#97 = ADVANCED_FACE ( 'NONE', ( #151 ), #223, .T. ) ;
#98 = DIRECTION ( 'NONE',  ( 0.0000000000000000000, -1.000000000000000000, 0.0000000000000000000 ) ) ;
#99 = VERTEX_POINT ( 'NONE', #8 ) ;
#100 = CIRCLE ( 'NONE', #154, 0.4999999999999970579 ) ;
#101 = FACE_OUTER_BOUND ( 'NONE', #80, .T. ) ;
#102 = UNCERTAINTY_MEASURE_WITH_UNIT (LENGTH_MEASURE( 1.000000000000000082E-05 ), #19, 'distance_accuracy_value', 'NONE');
#103 = DIRECTION ( 'NONE',  ( -3.491481338843133355E-15, 1.224646799147353207E-16, -1.000000000000000000 ) ) ;
#104 = CARTESIAN_POINT ( 'NONE',  ( 1.047444401652940007E-13, 2.999519565323660135E-33, 30.00000000000000000 ) ) ;
#105 = EDGE_CURVE ( 'NONE', #83, #83, #157, .T. ) ;
#106 = PERSON_AND_ORGANIZATION_ROLE ( 'creator' ) ;
#107 = DATE_AND_TIME ( #187, #41 ) ;
#108 = PERSON_AND_ORGANIZATION ( #111, #59 ) ;
#109 = ADVANCED_FACE ( 'NONE', ( #50, #30 ), #58, .T. ) ;
#110 = ORIENTED_EDGE ( 'NONE', *, *, #105, .T. ) ;
#111 = PERSON ( 'UNSPECIFIED', 'UNSPECIFIED', 'UNSPECIFIED', ('UNSPECIFIED'), ('UNSPECIFIED'), ('UNSPECIFIED') ) ;
#112 = DIRECTION ( 'NONE',  ( 0.0000000000000000000, 1.000000000000000000, 0.0000000000000000000 ) ) ;
#113 = MANIFOLD_SOLID_BREP ( 'Corps-Déplacer/Copier1[1]', #129 ) ;
#114 = CARTESIAN_POINT ( 'NONE',  ( 1.955229549752154679E-14, 0.3749999999999986122, 5.599999999999999645 ) ) ;
#115 = CIRCLE ( 'NONE', #39, 0.5000000000000000000 ) ;
#116 = FACE_OUTER_BOUND ( 'NONE', #128, .T. ) ;
#117 = DIRECTION ( 'NONE',  ( 3.491481338843133355E-15, -1.224646799147353207E-16, 1.000000000000000000 ) ) ;
#118 = CC_DESIGN_PERSON_AND_ORGANIZATION_ASSIGNMENT ( #189, #92, ( #85 ) ) ;
#119 = CC_DESIGN_APPROVAL ( #123, ( #9 ) ) ;
#120 =( NAMED_UNIT ( * ) PLANE_ANGLE_UNIT ( ) SI_UNIT ( $, .RADIAN. ) );
#121 = APPLICATION_PROTOCOL_DEFINITION ( 'international standard', 'config_control_design', 1994, #21 ) ;
#122 = VERTEX_POINT ( 'NONE', #37 ) ;
#123 = APPROVAL ( #33, 'UNSPECIFIED' ) ;
#124 = APPROVAL_DATE_TIME ( #60, #213 ) ;
#125 = ORIENTED_EDGE ( 'NONE', *, *, #177, .T. ) ;
#126 = CC_DESIGN_APPROVAL ( #38, ( #85 ) ) ;
#127 = CYLINDRICAL_SURFACE ( 'NONE', #193, 0.3749999999999988898 ) ;
#128 = EDGE_LOOP ( 'NONE', ( #23 ) ) ;
#129 = CLOSED_SHELL ( 'NONE', ( #76, #163, #91, #109, #32 ) ) ;
#130 = EDGE_CURVE ( 'NONE', #195, #195, #166, .T. ) ;
#131 = DIRECTION ( 'NONE',  ( -3.491481338843133355E-15, 1.224646799147353207E-16, -1.000000000000000000 ) ) ;
#132 = DIRECTION ( 'NONE',  ( -3.491481338843133355E-15, 1.224646799147353207E-16, -1.000000000000000000 ) ) ;
#133 = AXIS2_PLACEMENT_3D ( 'NONE', #49, #131, #26 ) ;
#134 = CARTESIAN_POINT ( 'NONE',  ( 0.0000000000000000000, 0.0000000000000000000, 0.0000000000000000000 ) ) ;
#135 = DIRECTION ( 'NONE',  ( 3.491481338843133355E-15, -1.224646799147353207E-16, 1.000000000000000000 ) ) ;
#136 = MECHANICAL_CONTEXT ( 'NONE', #186, 'mechanical' ) ;
#137 = APPROVAL_PERSON_ORGANIZATION ( #57, #38, #72 ) ;
#138 = APPROVAL_ROLE ( '' ) ;
#139 = COORDINATED_UNIVERSAL_TIME_OFFSET ( 1, 0, .AHEAD. ) ;
#140 = SECURITY_CLASSIFICATION_LEVEL ( 'unclassified' ) ;
#141 = ORIENTED_EDGE ( 'NONE', *, *, #74, .T. ) ;
#142 = ORIENTED_EDGE ( 'NONE', *, *, #162, .T. ) ;
#143 = EDGE_LOOP ( 'NONE', ( #160 ) ) ;
#144 = DIRECTION ( 'NONE',  ( -3.491481338843133355E-15, 1.224646799147353207E-16, -1.000000000000000000 ) ) ;
#145 = EDGE_LOOP ( 'NONE', ( #142 ) ) ;
#146 = DIRECTION ( 'NONE',  ( -3.491481338843133355E-15, 1.224646799147353207E-16, -1.000000000000000000 ) ) ;
#147 = CARTESIAN_POINT ( 'NONE',  ( 1.047444401652940007E-13, 0.3999999999999963585, 30.00000000000000000 ) ) ;
#148 = CYLINDRICAL_SURFACE ( 'NONE', #82, 0.4999999999999985012 ) ;
#149 = FACE_OUTER_BOUND ( 'NONE', #207, .T. ) ;
#150 = AXIS2_PLACEMENT_3D ( 'NONE', #67, #217, #47 ) ;
#151 = FACE_OUTER_BOUND ( 'NONE', #161, .T. ) ;
#152 = DIRECTION ( 'NONE',  ( 1.000000000000000000, 0.0000000000000000000, 0.0000000000000000000 ) ) ;
#153 = COORDINATED_UNIVERSAL_TIME_OFFSET ( 1, 0, .AHEAD. ) ;
#154 = AXIS2_PLACEMENT_3D ( 'NONE', #86, #103, #179 ) ;
#155 = APPROVAL_ROLE ( '' ) ;
#156 = DIRECTION ( 'NONE',  ( 0.0000000000000000000, 0.0000000000000000000, 1.000000000000000000 ) ) ;
#157 = CIRCLE ( 'NONE', #133, 0.4000000000000000222 ) ;
#158 = LOCAL_TIME ( 15, 46, 58.00000000000000000, #71 ) ;
#159 = ORIENTED_EDGE ( 'NONE', *, *, #105, .F. ) ;
#160 = ORIENTED_EDGE ( 'NONE', *, *, #130, .F. ) ;
#161 = EDGE_LOOP ( 'NONE', ( #94 ) ) ;
#162 = EDGE_CURVE ( 'NONE', #11, #11, #100, .T. ) ;
#163 = ADVANCED_FACE ( 'NONE', ( #164, #25 ), #2, .T. ) ;
#164 = FACE_BOUND ( 'NONE', #143, .T. ) ;
#165 = DIRECTION ( 'NONE',  ( 4.275831445896959482E-31, 1.000000000000000000, 1.224646799147353207E-16 ) ) ;
#166 = CIRCLE ( 'NONE', #70, 0.3749999999999992784 ) ;
#167 = CC_DESIGN_SECURITY_CLASSIFICATION ( #211, ( #9 ) ) ;
#168 = CARTESIAN_POINT ( 'NONE',  ( 1.955229549752154679E-14, -6.858022075225177566E-16, 5.599999999999999645 ) ) ;
#169 = DIRECTION ( 'NONE',  ( -3.491481338843133355E-15, 1.224646799147353207E-16, -1.000000000000000000 ) ) ;
#170 = FACE_OUTER_BOUND ( 'NONE', #1, .T. ) ;
#171 = AXIS2_PLACEMENT_3D ( 'NONE', #168, #64, #31 ) ;
#172 =( NAMED_UNIT ( * ) SI_UNIT ( $, .STERADIAN. ) SOLID_ANGLE_UNIT ( ) );
#173 = DATE_TIME_ROLE ( 'classification_date' ) ;
#174 = PERSON_AND_ORGANIZATION_ROLE ( 'classification_officer' ) ;
#175 = PRODUCT ( '36975', '36975', '', ( #136 ) ) ;
#176 = CARTESIAN_POINT ( 'NONE',  ( 0.0000000000000000000, 0.0000000000000000000, 0.0000000000000000000 ) ) ;
#177 = EDGE_CURVE ( 'NONE', #122, #122, #115, .T. ) ;
#178 = APPROVAL_PERSON_ORGANIZATION ( #69, #123, #138 ) ;
#179 = DIRECTION ( 'NONE',  ( 0.0000000000000000000, 1.000000000000000000, 0.0000000000000000000 ) ) ;
#180 = DIRECTION ( 'NONE',  ( -3.491481338843133355E-15, 1.224646799147353207E-16, -1.000000000000000000 ) ) ;
#181 = PLANE ( 'NONE',  #89 ) ;
#182 = DIRECTION ( 'NONE',  ( -3.491481338843133355E-15, 1.224646799147353207E-16, -1.000000000000000000 ) ) ;
#183 = DIRECTION ( 'NONE',  ( -4.275831445896958607E-31, -1.000000000000000000, -1.224646799147353207E-16 ) ) ;
#184 = PERSON_AND_ORGANIZATION ( #111, #59 ) ;
#185 = DATE_TIME_ROLE ( 'creation_date' ) ;
#186 = APPLICATION_CONTEXT ( 'configuration controlled 3d designs of mechanical parts and assemblies' ) ;
#187 = CALENDAR_DATE ( 2021, 7, 10 ) ;
#188 = LOCAL_TIME ( 15, 46, 58.00000000000000000, #222 ) ;
#189 = PERSON_AND_ORGANIZATION ( #111, #59 ) ;
#190 = ADVANCED_FACE ( 'NONE', ( #149 ), #198, .T. ) ;
#191 = PRODUCT_RELATED_PRODUCT_CATEGORY ( 'detail', '', ( #175 ) ) ;
#192 = DIRECTION ( 'NONE',  ( 4.275831445896958607E-31, 1.000000000000000000, 1.224646799147353207E-16 ) ) ;
#193 = AXIS2_PLACEMENT_3D ( 'NONE', #96, #144, #192 ) ;
#194 = DIRECTION ( 'NONE',  ( 3.491481338843133355E-15, -1.224646799147353207E-16, 1.000000000000000000 ) ) ;
#195 = VERTEX_POINT ( 'NONE', #114 ) ;
#196 = CARTESIAN_POINT ( 'NONE',  ( 1.955229549752154679E-14, 2.812049592490967277E-33, 5.599999999999999645 ) ) ;
#197 = ADVANCED_BREP_SHAPE_REPRESENTATION ( '36975', ( #113, #46, #78 ), #219 ) ;
#198 = PLANE ( 'NONE',  #48 ) ;
#199 = DIRECTION ( 'NONE',  ( -5.135813185032650545E-31, -1.000000000000000000, -1.445602896647345326E-16 ) ) ;
#200 = APPROVAL_DATE_TIME ( #56, #123 ) ;
#201 = PERSON_AND_ORGANIZATION_ROLE ( 'design_supplier' ) ;
#202 = CALENDAR_DATE ( 2021, 7, 10 ) ;
#203 = LOCAL_TIME ( 15, 46, 58.00000000000000000, #52 ) ;
#204 = CALENDAR_DATE ( 2021, 7, 10 ) ;
#205 = ORIENTED_EDGE ( 'NONE', *, *, #162, .F. ) ;
#206 = FACE_OUTER_BOUND ( 'NONE', #79, .T. ) ;
#207 = EDGE_LOOP ( 'NONE', ( #5 ) ) ;
#208 = EDGE_LOOP ( 'NONE', ( #159 ) ) ;
#209 = CC_DESIGN_PERSON_AND_ORGANIZATION_ASSIGNMENT ( #108, #106, ( #9 ) ) ;
#210 = VERTEX_POINT ( 'NONE', #45 ) ;
#211 = SECURITY_CLASSIFICATION ( '', '', #140 ) ;
#212 = CARTESIAN_POINT ( 'NONE',  ( 1.955229549752154679E-14, -6.858022075225177566E-16, 5.599999999999999645 ) ) ;
#213 = APPROVAL ( #17, 'UNSPECIFIED' ) ;
#214 = DIRECTION ( 'NONE',  ( 0.0000000000000000000, 1.000000000000000000, 0.0000000000000000000 ) ) ;
#215 = DIRECTION ( 'NONE',  ( 3.491481338843133355E-15, -1.224646799147353207E-16, 1.000000000000000000 ) ) ;
#216 = LOCAL_TIME ( 15, 46, 58.00000000000000000, #153 ) ;
#217 = DIRECTION ( 'NONE',  ( -3.491481338843133355E-15, 1.224646799147353207E-16, -1.000000000000000000 ) ) ;
#218 = APPLICATION_PROTOCOL_DEFINITION ( 'international standard', 'config_control_design', 1994, #186 ) ;
#219 =( GEOMETRIC_REPRESENTATION_CONTEXT ( 3 ) GLOBAL_UNCERTAINTY_ASSIGNED_CONTEXT ( ( #102 ) ) GLOBAL_UNIT_ASSIGNED_CONTEXT ( ( #19, #120, #172 ) ) REPRESENTATION_CONTEXT ( 'NONE', 'WORKASPACE' ) );
#220 = DATE_AND_TIME ( #202, #216 ) ;
#221 = APPROVAL_STATUS ( 'not_yet_approved' ) ;
#222 = COORDINATED_UNIVERSAL_TIME_OFFSET ( 1, 0, .AHEAD. ) ;
#223 = CONICAL_SURFACE ( 'NONE', #34, 0.3749999999999984457, 1.029744258676649649 ) ;
ENDSEC;
END-ISO-10303-21;
