ISO-10303-21;
HEADER;
FILE_DESCRIPTION (( 'STEP AP203' ),
    '1' );
FILE_NAME ('36966.step',
    '2021-10-07T13:46:57',
    ( '' ),
    ( '' ),
    'SwSTEP 2.0',
    'SolidWorks 2019',
    '' );
FILE_SCHEMA (( 'CONFIG_CONTROL_DESIGN' ));
ENDSEC;

DATA;
#1 = COORDINATED_UNIVERSAL_TIME_OFFSET ( 1, 0, .AHEAD. ) ;
#2 = APPROVAL_ROLE ( '' ) ;
#3 = PERSON_AND_ORGANIZATION ( #30, #163 ) ;
#4 = APPROVAL_ROLE ( '' ) ;
#5 = APPROVAL_DATE_TIME ( #193, #159 ) ;
#6 = AXIS2_PLACEMENT_3D ( 'NONE', #208, #153, #17 ) ;
#7 = ORIENTED_EDGE ( 'NONE', *, *, #84, .T. ) ;
#8 = EDGE_LOOP ( 'NONE', ( #216 ) ) ;
#9 = AXIS2_PLACEMENT_3D ( 'NONE', #145, #165, #177 ) ;
#10 = LOCAL_TIME ( 15, 46, 57.00000000000000000, #21 ) ;
#11 = ORIENTED_EDGE ( 'NONE', *, *, #94, .F. ) ;
#12 = VERTEX_POINT ( 'NONE', #59 ) ;
#13 = DIRECTION ( 'NONE',  ( 0.0000000000000000000, 1.000000000000000000, 0.0000000000000000000 ) ) ;
#14 = AXIS2_PLACEMENT_3D ( 'NONE', #222, #115, #196 ) ;
#15 = VERTEX_POINT ( 'NONE', #82 ) ;
#16 = DIRECTION ( 'NONE',  ( -3.491481338843133355E-15, 1.224646799147353207E-16, -1.000000000000000000 ) ) ;
#17 = DIRECTION ( 'NONE',  ( 1.000000000000000000, 0.0000000000000000000, 0.0000000000000000000 ) ) ;
#18 = LOCAL_TIME ( 15, 46, 57.00000000000000000, #169 ) ;
#19 = PERSON_AND_ORGANIZATION_ROLE ( 'design_owner' ) ;
#20 = PERSON_AND_ORGANIZATION_ROLE ( 'classification_officer' ) ;
#21 = COORDINATED_UNIVERSAL_TIME_OFFSET ( 1, 0, .AHEAD. ) ;
#22 = AXIS2_PLACEMENT_3D ( 'NONE', #129, #161, #149 ) ;
#23 = PERSON_AND_ORGANIZATION ( #30, #163 ) ;
#24 = ADVANCED_FACE ( 'NONE', ( #195 ), #74, .T. ) ;
#25 = AXIS2_PLACEMENT_3D ( 'NONE', #202, #58, #99 ) ;
#26 = CC_DESIGN_PERSON_AND_ORGANIZATION_ASSIGNMENT ( #186, #102, ( #192 ) ) ;
#27 = CARTESIAN_POINT ( 'NONE',  ( 1.745740669421566678E-14, -6.123233995736766282E-16, 5.000000000000000000 ) ) ;
#28 = DIRECTION ( 'NONE',  ( -3.491481338843133355E-15, 1.224646799147353207E-16, -1.000000000000000000 ) ) ;
#29 = FACE_BOUND ( 'NONE', #111, .T. ) ;
#30 = PERSON ( 'UNSPECIFIED', 'UNSPECIFIED', 'UNSPECIFIED', ('UNSPECIFIED'), ('UNSPECIFIED'), ('UNSPECIFIED') ) ;
#31 = FACE_OUTER_BOUND ( 'NONE', #194, .T. ) ;
#32 = DIRECTION ( 'NONE',  ( 2.918075673314000458E-31, 1.000000000000000000, 8.213652821859901050E-17 ) ) ;
#33 = ADVANCED_FACE ( 'NONE', ( #127 ), #112, .F. ) ;
#34 = APPROVAL_STATUS ( 'not_yet_approved' ) ;
#35 = APPLICATION_PROTOCOL_DEFINITION ( 'international standard', 'config_control_design', 1994, #131 ) ;
#36 = DATE_TIME_ROLE ( 'creation_date' ) ;
#37 = CALENDAR_DATE ( 2021, 7, 10 ) ;
#38 = APPROVAL ( #122, 'UNSPECIFIED' ) ;
#39 = PERSON_AND_ORGANIZATION_ROLE ( 'creator' ) ;
#40 = PRODUCT ( '36966', '36966', '', ( #182 ) ) ;
#41 = ORIENTED_EDGE ( 'NONE', *, *, #84, .F. ) ;
#42 = AXIS2_PLACEMENT_3D ( 'NONE', #47, #199, #78 ) ;
#43 = EDGE_LOOP ( 'NONE', ( #93 ) ) ;
#44 = DIRECTION ( 'NONE',  ( 3.491481338843133355E-15, -1.224646799147353207E-16, 1.000000000000000000 ) ) ;
#45 = AXIS2_PLACEMENT_3D ( 'NONE', #221, #62, #174 ) ;
#46 = DIRECTION ( 'NONE',  ( 3.491481338843133355E-15, -1.224646799147353207E-16, 1.000000000000000000 ) ) ;
#47 = CARTESIAN_POINT ( 'NONE',  ( 0.0000000000000000000, 0.0000000000000000000, 0.0000000000000000000 ) ) ;
#48 = VERTEX_POINT ( 'NONE', #134 ) ;
#49 = FACE_BOUND ( 'NONE', #144, .T. ) ;
#50 = AXIS2_PLACEMENT_3D ( 'NONE', #51, #28, #13 ) ;
#51 = CARTESIAN_POINT ( 'NONE',  ( 1.047444401652940007E-13, -3.673940397442059178E-15, 30.00000000000000000 ) ) ;
#52 = CIRCLE ( 'NONE', #124, 0.3300000000000000711 ) ;
#53 = APPLICATION_PROTOCOL_DEFINITION ( 'international standard', 'config_control_design', 1994, #180 ) ;
#54 = APPROVAL ( #34, 'UNSPECIFIED' ) ;
#55 = CIRCLE ( 'NONE', #14, 0.4999999999999970024 ) ;
#56 = ADVANCED_FACE ( 'NONE', ( #219 ), #178, .F. ) ;
#57 = ORIENTED_EDGE ( 'NONE', *, *, #100, .F. ) ;
#58 = DIRECTION ( 'NONE',  ( -3.491481338843133355E-15, 1.224646799147353207E-16, -1.000000000000000000 ) ) ;
#59 = CARTESIAN_POINT ( 'NONE',  ( 1.043952920314096810E-13, 0.4999999999999963363, 29.89999999999999858 ) ) ;
#60 = VERTEX_POINT ( 'NONE', #95 ) ;
#61 = DIRECTION ( 'NONE',  ( 0.0000000000000000000, -1.000000000000000000, 0.0000000000000000000 ) ) ;
#62 = DIRECTION ( 'NONE',  ( 3.491481338843133355E-15, -1.224646799147353207E-16, 1.000000000000000000 ) ) ;
#63 = COORDINATED_UNIVERSAL_TIME_OFFSET ( 1, 0, .AHEAD. ) ;
#64 = EDGE_CURVE ( 'NONE', #60, #60, #179, .T. ) ;
#65 = PRODUCT_DEFINITION_SHAPE ( 'NONE', 'NONE',  #79 ) ;
#66 = SECURITY_CLASSIFICATION_LEVEL ( 'unclassified' ) ;
#67 = AXIS2_PLACEMENT_3D ( 'NONE', #96, #135, #166 ) ;
#68 = APPROVAL_PERSON_ORGANIZATION ( #185, #38, #2 ) ;
#69 = CC_DESIGN_PERSON_AND_ORGANIZATION_ASSIGNMENT ( #138, #20, ( #197 ) ) ;
#70 = APPROVAL_STATUS ( 'not_yet_approved' ) ;
#71 = CONICAL_SURFACE ( 'NONE', #45, 0.3299999999999992384, 1.029744258676649649 ) ;
#72 = ORIENTED_EDGE ( 'NONE', *, *, #175, .T. ) ;
#73 = CALENDAR_DATE ( 2021, 7, 10 ) ;
#74 = PLANE ( 'NONE',  #201 ) ;
#75 = CARTESIAN_POINT ( 'NONE',  ( 1.745740669421566678E-14, 2.474603641392056432E-33, 5.000000000000000000 ) ) ;
#76 = ORIENTED_EDGE ( 'NONE', *, *, #175, .F. ) ;
#77 = DIRECTION ( 'NONE',  ( -4.275831445896958607E-31, -1.000000000000000000, -1.224646799147353207E-16 ) ) ;
#78 = DIRECTION ( 'NONE',  ( 4.275831445896959482E-31, 1.000000000000000000, 1.224646799147353207E-16 ) ) ;
#79 = PRODUCT_DEFINITION ( 'UNKNOWN', '', #192, #155 ) ;
#80 = CC_DESIGN_APPROVAL ( #54, ( #192 ) ) ;
#81 = CARTESIAN_POINT ( 'NONE',  ( 1.967257227175668801E-14, -6.900209488613342524E-16, 5.634448637286715744 ) ) ;
#82 = CARTESIAN_POINT ( 'NONE',  ( 1.967257227175668801E-14, 0.4999999999999963363, 5.634448637286715744 ) ) ;
#83 = FACE_OUTER_BOUND ( 'NONE', #92, .T. ) ;
#84 = EDGE_CURVE ( 'NONE', #12, #12, #213, .T. ) ;
#85 = CARTESIAN_POINT ( 'NONE',  ( 1.047444401652940007E-13, 0.3999999999999963585, 30.00000000000000000 ) ) ;
#86 = PERSON_AND_ORGANIZATION_ROLE ( 'design_supplier' ) ;
#87 = COORDINATED_UNIVERSAL_TIME_OFFSET ( 1, 0, .AHEAD. ) ;
#88 = ADVANCED_FACE ( 'NONE', ( #31, #133 ), #148, .T. ) ;
#89 = CLOSED_SHELL ( 'NONE', ( #184, #88, #24 ) ) ;
#90 = AXIS2_PLACEMENT_3D ( 'NONE', #150, #223, #114 ) ;
#91 = CALENDAR_DATE ( 2021, 7, 10 ) ;
#92 = EDGE_LOOP ( 'NONE', ( #7 ) ) ;
#93 = ORIENTED_EDGE ( 'NONE', *, *, #100, .T. ) ;
#94 = EDGE_CURVE ( 'NONE', #48, #48, #120, .T. ) ;
#95 = CARTESIAN_POINT ( 'NONE',  ( 1.745740669421566678E-14, 0.3299999999999994604, 5.000000000000000000 ) ) ;
#96 = CARTESIAN_POINT ( 'NONE',  ( 1.047444401652940007E-13, 2.999519565323660135E-33, 30.00000000000000000 ) ) ;
#97 = LOCAL_TIME ( 15, 46, 57.00000000000000000, #87 ) ;
#98 = FACE_OUTER_BOUND ( 'NONE', #212, .T. ) ;
#99 = DIRECTION ( 'NONE',  ( 4.275831445896958607E-31, 1.000000000000000000, 1.224646799147353207E-16 ) ) ;
#100 = EDGE_CURVE ( 'NONE', #116, #116, #52, .T. ) ;
#101 = DIRECTION ( 'NONE',  ( 3.491481338843133355E-15, -1.224646799147353207E-16, 1.000000000000000000 ) ) ;
#102 = PERSON_AND_ORGANIZATION_ROLE ( 'creator' ) ;
#103 = DATE_AND_TIME ( #171, #106 ) ;
#104 = APPROVAL_DATE_TIME ( #188, #54 ) ;
#105 = AXIS2_PLACEMENT_3D ( 'NONE', #118, #101, #77 ) ;
#106 = LOCAL_TIME ( 15, 46, 57.00000000000000000, #1 ) ;
#107 = UNCERTAINTY_MEASURE_WITH_UNIT (LENGTH_MEASURE( 1.000000000000000082E-05 ), #136, 'distance_accuracy_value', 'NONE');
#108 =( NAMED_UNIT ( * ) SI_UNIT ( $, .STERADIAN. ) SOLID_ANGLE_UNIT ( ) );
#109 = CC_DESIGN_PERSON_AND_ORGANIZATION_ASSIGNMENT ( #23, #39, ( #79 ) ) ;
#110 = MANIFOLD_SOLID_BREP ( 'Corps-Déplacer/Copier1[1]', #187 ) ;
#111 = EDGE_LOOP ( 'NONE', ( #72 ) ) ;
#112 = PLANE ( 'NONE',  #67 ) ;
#113 = CONICAL_SURFACE ( 'NONE', #50, 0.4000000000000000222, 0.7853981633974512766 ) ;
#114 = DIRECTION ( 'NONE',  ( 0.0000000000000000000, 1.000000000000000000, 0.0000000000000000000 ) ) ;
#115 = DIRECTION ( 'NONE',  ( -3.491481338843133355E-15, 1.224646799147353207E-16, -1.000000000000000000 ) ) ;
#116 = VERTEX_POINT ( 'NONE', #164 ) ;
#117 = DIRECTION ( 'NONE',  ( 0.0000000000000000000, 1.000000000000000000, 0.0000000000000000000 ) ) ;
#118 = CARTESIAN_POINT ( 'NONE',  ( 1.745740669421566678E-14, 2.474603641392056432E-33, 5.000000000000000000 ) ) ;
#119 = DATE_AND_TIME ( #91, #181 ) ;
#120 = CIRCLE ( 'NONE', #147, 0.3299999999999992384 ) ;
#121 = PERSON_AND_ORGANIZATION ( #30, #163 ) ;
#122 = APPROVAL_STATUS ( 'not_yet_approved' ) ;
#123 = ADVANCED_BREP_SHAPE_REPRESENTATION ( '36966', ( #110, #183, #6 ), #167 ) ;
#124 = AXIS2_PLACEMENT_3D ( 'NONE', #27, #16, #117 ) ;
#125 = EDGE_LOOP ( 'NONE', ( #41 ) ) ;
#126 = ADVANCED_FACE ( 'NONE', ( #198, #83 ), #217, .T. ) ;
#127 = FACE_OUTER_BOUND ( 'NONE', #210, .T. ) ;
#128 = CONICAL_SURFACE ( 'NONE', #141, 0.4999999999999970024, 0.2617993877991423024 ) ;
#129 = CARTESIAN_POINT ( 'NONE',  ( 1.043952920314096810E-13, -3.661693929450586610E-15, 29.89999999999999858 ) ) ;
#130 = EDGE_CURVE ( 'NONE', #15, #15, #55, .T. ) ;
#131 = APPLICATION_CONTEXT ( 'configuration controlled 3d designs of mechanical parts and assemblies' ) ;
#132 = CC_DESIGN_SECURITY_CLASSIFICATION ( #197, ( #192 ) ) ;
#133 = FACE_OUTER_BOUND ( 'NONE', #43, .T. ) ;
#134 = CARTESIAN_POINT ( 'NONE',  ( 6.923049007315578850E-16, 0.3299999999999992384, 0.1982840042790966206 ) ) ;
#135 = DIRECTION ( 'NONE',  ( -3.491481338843133355E-15, 1.224646799147353207E-16, -1.000000000000000000 ) ) ;
#136 =( LENGTH_UNIT ( ) NAMED_UNIT ( * ) SI_UNIT ( .MILLI., .METRE. ) );
#137 = PRODUCT_RELATED_PRODUCT_CATEGORY ( 'detail', '', ( #40 ) ) ;
#138 = PERSON_AND_ORGANIZATION ( #30, #163 ) ;
#139 = DATE_TIME_ROLE ( 'classification_date' ) ;
#140 = APPROVAL_DATE_TIME ( #103, #38 ) ;
#141 = AXIS2_PLACEMENT_3D ( 'NONE', #81, #46, #61 ) ;
#142 = EDGE_LOOP ( 'NONE', ( #191 ) ) ;
#143 = DIRECTION ( 'NONE',  ( -4.275831445896958607E-31, -1.000000000000000000, -1.224646799147353207E-16 ) ) ;
#144 = EDGE_LOOP ( 'NONE', ( #173 ) ) ;
#145 = CARTESIAN_POINT ( 'NONE',  ( 1.745740669421566678E-14, -6.123233995736766282E-16, 5.000000000000000000 ) ) ;
#146 = FACE_OUTER_BOUND ( 'NONE', #8, .T. ) ;
#147 = AXIS2_PLACEMENT_3D ( 'NONE', #162, #200, #32 ) ;
#148 = CYLINDRICAL_SURFACE ( 'NONE', #25, 0.3299999999999996825 ) ;
#149 = DIRECTION ( 'NONE',  ( 0.0000000000000000000, 1.000000000000000000, 0.0000000000000000000 ) ) ;
#150 = CARTESIAN_POINT ( 'NONE',  ( 1.047444401652940007E-13, -3.673940397442059178E-15, 30.00000000000000000 ) ) ;
#151 = CIRCLE ( 'NONE', #90, 0.4000000000000000222 ) ;
#152 = ADVANCED_FACE ( 'NONE', ( #176, #29 ), #113, .T. ) ;
#153 = DIRECTION ( 'NONE',  ( 0.0000000000000000000, 0.0000000000000000000, 1.000000000000000000 ) ) ;
#154 = VERTEX_POINT ( 'NONE', #85 ) ;
#155 = DESIGN_CONTEXT ( 'detailed design', #131, 'design' ) ;
#156 = APPROVAL_PERSON_ORGANIZATION ( #3, #54, #4 ) ;
#157 = ADVANCED_FACE ( 'NONE', ( #49, #98 ), #128, .T. ) ;
#158 = DATE_AND_TIME ( #37, #97 ) ;
#159 = APPROVAL ( #70, 'UNSPECIFIED' ) ;
#160 = ORIENTED_EDGE ( 'NONE', *, *, #130, .T. ) ;
#161 = DIRECTION ( 'NONE',  ( -3.491481338843133355E-15, 1.224646799147353207E-16, -1.000000000000000000 ) ) ;
#162 = CARTESIAN_POINT ( 'NONE',  ( 6.923049007315577864E-16, -2.428278711625157210E-17, 0.1982840042790965929 ) ) ;
#163 = ORGANIZATION ( 'UNSPECIFIED', 'UNSPECIFIED', '' ) ;
#164 = CARTESIAN_POINT ( 'NONE',  ( 1.745740669421566678E-14, 0.3299999999999994604, 5.000000000000000000 ) ) ;
#165 = DIRECTION ( 'NONE',  ( -3.491481338843133355E-15, 1.224646799147353207E-16, -1.000000000000000000 ) ) ;
#166 = DIRECTION ( 'NONE',  ( 4.275831445896958607E-31, 1.000000000000000000, 1.224646799147353207E-16 ) ) ;
#167 =( GEOMETRIC_REPRESENTATION_CONTEXT ( 3 ) GLOBAL_UNCERTAINTY_ASSIGNED_CONTEXT ( ( #107 ) ) GLOBAL_UNIT_ASSIGNED_CONTEXT ( ( #136, #204, #108 ) ) REPRESENTATION_CONTEXT ( 'NONE', 'WORKASPACE' ) );
#168 = PERSON_AND_ORGANIZATION ( #30, #163 ) ;
#169 = COORDINATED_UNIVERSAL_TIME_OFFSET ( 1, 0, .AHEAD. ) ;
#170 = APPROVAL_ROLE ( '' ) ;
#171 = CALENDAR_DATE ( 2021, 7, 10 ) ;
#172 = CC_DESIGN_DATE_AND_TIME_ASSIGNMENT ( #158, #139, ( #197 ) ) ;
#173 = ORIENTED_EDGE ( 'NONE', *, *, #64, .F. ) ;
#174 = DIRECTION ( 'NONE',  ( -2.918075673314000458E-31, -1.000000000000000000, -8.213652821859901050E-17 ) ) ;
#175 = EDGE_CURVE ( 'NONE', #154, #154, #151, .T. ) ;
#176 = FACE_OUTER_BOUND ( 'NONE', #125, .T. ) ;
#177 = DIRECTION ( 'NONE',  ( 0.0000000000000000000, 1.000000000000000000, 0.0000000000000000000 ) ) ;
#178 = PLANE ( 'NONE',  #105 ) ;
#179 = CIRCLE ( 'NONE', #9, 0.3300000000000000711 ) ;
#180 = APPLICATION_CONTEXT ( 'configuration controlled 3d designs of mechanical parts and assemblies' ) ;
#181 = LOCAL_TIME ( 15, 46, 57.00000000000000000, #63 ) ;
#182 = MECHANICAL_CONTEXT ( 'NONE', #180, 'mechanical' ) ;
#183 = MANIFOLD_SOLID_BREP ( 'Corps-Déplacer/Copier1[2]', #89 ) ;
#184 = ADVANCED_FACE ( 'NONE', ( #146 ), #71, .T. ) ;
#185 = PERSON_AND_ORGANIZATION ( #30, #163 ) ;
#186 = PERSON_AND_ORGANIZATION ( #30, #163 ) ;
#187 = CLOSED_SHELL ( 'NONE', ( #56, #157, #126, #152, #33 ) ) ;
#188 = DATE_AND_TIME ( #205, #18 ) ;
#189 = SHAPE_DEFINITION_REPRESENTATION ( #65, #123 ) ;
#190 = ORIENTED_EDGE ( 'NONE', *, *, #64, .T. ) ;
#191 = ORIENTED_EDGE ( 'NONE', *, *, #130, .F. ) ;
#192 = PRODUCT_DEFINITION_FORMATION_WITH_SPECIFIED_SOURCE ( 'ANY', '', #40, .NOT_KNOWN. ) ;
#193 = DATE_AND_TIME ( #73, #10 ) ;
#194 = EDGE_LOOP ( 'NONE', ( #11 ) ) ;
#195 = FACE_OUTER_BOUND ( 'NONE', #211, .T. ) ;
#196 = DIRECTION ( 'NONE',  ( 0.0000000000000000000, 1.000000000000000000, 0.0000000000000000000 ) ) ;
#197 = SECURITY_CLASSIFICATION ( '', '', #66 ) ;
#198 = FACE_OUTER_BOUND ( 'NONE', #142, .T. ) ;
#199 = DIRECTION ( 'NONE',  ( -3.491481338843133355E-15, 1.224646799147353207E-16, -1.000000000000000000 ) ) ;
#200 = DIRECTION ( 'NONE',  ( -3.491481338843133355E-15, 1.224646799147353207E-16, -1.000000000000000000 ) ) ;
#201 = AXIS2_PLACEMENT_3D ( 'NONE', #75, #44, #143 ) ;
#202 = CARTESIAN_POINT ( 'NONE',  ( 0.0000000000000000000, 0.0000000000000000000, 0.0000000000000000000 ) ) ;
#203 = CC_DESIGN_DATE_AND_TIME_ASSIGNMENT ( #119, #36, ( #79 ) ) ;
#204 =( NAMED_UNIT ( * ) PLANE_ANGLE_UNIT ( ) SI_UNIT ( $, .RADIAN. ) );
#205 = CALENDAR_DATE ( 2021, 7, 10 ) ;
#206 = CC_DESIGN_PERSON_AND_ORGANIZATION_ASSIGNMENT ( #168, #86, ( #192 ) ) ;
#207 = CC_DESIGN_APPROVAL ( #38, ( #79 ) ) ;
#208 = CARTESIAN_POINT ( 'NONE',  ( 0.0000000000000000000, 0.0000000000000000000, 0.0000000000000000000 ) ) ;
#209 = PERSON_AND_ORGANIZATION ( #30, #163 ) ;
#210 = EDGE_LOOP ( 'NONE', ( #76 ) ) ;
#211 = EDGE_LOOP ( 'NONE', ( #57 ) ) ;
#212 = EDGE_LOOP ( 'NONE', ( #160 ) ) ;
#213 = CIRCLE ( 'NONE', #22, 0.5000000000000000000 ) ;
#214 = EDGE_LOOP ( 'NONE', ( #190 ) ) ;
#215 = CC_DESIGN_APPROVAL ( #159, ( #197 ) ) ;
#216 = ORIENTED_EDGE ( 'NONE', *, *, #94, .T. ) ;
#217 = CYLINDRICAL_SURFACE ( 'NONE', #42, 0.4999999999999985012 ) ;
#218 = CC_DESIGN_PERSON_AND_ORGANIZATION_ASSIGNMENT ( #121, #19, ( #40 ) ) ;
#219 = FACE_OUTER_BOUND ( 'NONE', #214, .T. ) ;
#220 = APPROVAL_PERSON_ORGANIZATION ( #209, #159, #170 ) ;
#221 = CARTESIAN_POINT ( 'NONE',  ( 6.923049007315577864E-16, -2.428278711625157210E-17, 0.1982840042790965929 ) ) ;
#222 = CARTESIAN_POINT ( 'NONE',  ( 1.967257227175668801E-14, -6.900209488613342524E-16, 5.634448637286715744 ) ) ;
#223 = DIRECTION ( 'NONE',  ( -3.491481338843133355E-15, 1.224646799147353207E-16, -1.000000000000000000 ) ) ;
ENDSEC;
END-ISO-10303-21;
