ISO-10303-21;
HEADER;
FILE_DESCRIPTION (( 'STEP AP203' ),
    '1' );
FILE_NAME ('36948.step',
    '2021-10-07T13:46:57',
    ( '' ),
    ( '' ),
    'SwSTEP 2.0',
    'SolidWorks 2019',
    '' );
FILE_SCHEMA (( 'CONFIG_CONTROL_DESIGN' ));
ENDSEC;

DATA;
#1 = CARTESIAN_POINT ( 'NONE',  ( 0.0000000000000000000, 0.0000000000000000000, 0.0000000000000000000 ) ) ;
#2 = CARTESIAN_POINT ( 'NONE',  ( 6.982962677686266711E-15, 1.649735760928039332E-33, 2.000000000000000000 ) ) ;
#3 = AXIS2_PLACEMENT_3D ( 'NONE', #184, #149, #148 ) ;
#4 = DIRECTION ( 'NONE',  ( 0.0000000000000000000, -1.000000000000000000, 0.0000000000000000000 ) ) ;
#5 = CARTESIAN_POINT ( 'NONE',  ( 1.043952920314096810E-13, -3.661693929450586610E-15, 29.89999999999999858 ) ) ;
#6 = VERTEX_POINT ( 'NONE', #72 ) ;
#7 =( NAMED_UNIT ( * ) PLANE_ANGLE_UNIT ( ) SI_UNIT ( $, .RADIAN. ) );
#8 = APPROVAL ( #27, 'UNSPECIFIED' ) ;
#9 = APPROVAL_PERSON_ORGANIZATION ( #50, #217, #60 ) ;
#10 = PERSON_AND_ORGANIZATION_ROLE ( 'design_supplier' ) ;
#11 = CARTESIAN_POINT ( 'NONE',  ( 4.615366004877059798E-16, 0.2199999999999997513, 0.1321893361860646265 ) ) ;
#12 = EDGE_LOOP ( 'NONE', ( #95 ) ) ;
#13 = AXIS2_PLACEMENT_3D ( 'NONE', #104, #175, #123 ) ;
#14 = SHAPE_DEFINITION_REPRESENTATION ( #30, #101 ) ;
#15 = ORIENTED_EDGE ( 'NONE', *, *, #121, .T. ) ;
#16 = APPROVAL_PERSON_ORGANIZATION ( #109, #8, #29 ) ;
#17 = CC_DESIGN_PERSON_AND_ORGANIZATION_ASSIGNMENT ( #64, #62, ( #65 ) ) ;
#18 = FACE_OUTER_BOUND ( 'NONE', #33, .T. ) ;
#19 = CYLINDRICAL_SURFACE ( 'NONE', #56, 0.4999999999999982792 ) ;
#20 = DIRECTION ( 'NONE',  ( -3.491481338843133355E-15, 1.224646799147353207E-16, -1.000000000000000000 ) ) ;
#21 = SECURITY_CLASSIFICATION ( '', '', #147 ) ;
#22 = CARTESIAN_POINT ( 'NONE',  ( 4.615366004877058812E-16, -1.618852474416773836E-17, 0.1321893361860645988 ) ) ;
#23 = PRODUCT_RELATED_PRODUCT_CATEGORY ( 'detail', '', ( #65 ) ) ;
#24 = CARTESIAN_POINT ( 'NONE',  ( 0.0000000000000000000, 0.0000000000000000000, 0.0000000000000000000 ) ) ;
#25 =( LENGTH_UNIT ( ) NAMED_UNIT ( * ) SI_UNIT ( .MILLI., .METRE. ) );
#26 = EDGE_CURVE ( 'NONE', #128, #128, #207, .T. ) ;
#27 = APPROVAL_STATUS ( 'not_yet_approved' ) ;
#28 = COORDINATED_UNIVERSAL_TIME_OFFSET ( 1, 0, .AHEAD. ) ;
#29 = APPROVAL_ROLE ( '' ) ;
#30 = PRODUCT_DEFINITION_SHAPE ( 'NONE', 'NONE',  #176 ) ;
#31 = ORIENTED_EDGE ( 'NONE', *, *, #212, .F. ) ;
#32 = DATE_AND_TIME ( #182, #218 ) ;
#33 = EDGE_LOOP ( 'NONE', ( #208 ) ) ;
#34 = ORGANIZATION ( 'UNSPECIFIED', 'UNSPECIFIED', '' ) ;
#35 = ADVANCED_FACE ( 'NONE', ( #151 ), #220, .F. ) ;
#36 = EDGE_LOOP ( 'NONE', ( #138 ) ) ;
#37 = APPLICATION_CONTEXT ( 'configuration controlled 3d designs of mechanical parts and assemblies' ) ;
#38 = PLANE ( 'NONE',  #155 ) ;
#39 = CLOSED_SHELL ( 'NONE', ( #35, #83, #222, #139, #111 ) ) ;
#40 = CARTESIAN_POINT ( 'NONE',  ( 4.615366004877058812E-16, -1.618852474416773836E-17, 0.1321893361860645988 ) ) ;
#41 = FACE_BOUND ( 'NONE', #119, .T. ) ;
#42 = FACE_OUTER_BOUND ( 'NONE', #206, .T. ) ;
#43 = AXIS2_PLACEMENT_3D ( 'NONE', #5, #71, #103 ) ;
#44 = CARTESIAN_POINT ( 'NONE',  ( 6.982962677686265133E-15, 0.2199999999999996958, 1.999999999999999556 ) ) ;
#45 = DATE_AND_TIME ( #197, #73 ) ;
#46 = CIRCLE ( 'NONE', #134, 0.2199999999999999456 ) ;
#47 = DATE_AND_TIME ( #198, #116 ) ;
#48 = EDGE_LOOP ( 'NONE', ( #31 ) ) ;
#49 = PERSON_AND_ORGANIZATION ( #88, #34 ) ;
#50 = PERSON_AND_ORGANIZATION ( #88, #34 ) ;
#51 = ORIENTED_EDGE ( 'NONE', *, *, #118, .F. ) ;
#52 = CIRCLE ( 'NONE', #69, 0.2199999999999999456 ) ;
#53 = MANIFOLD_SOLID_BREP ( 'Corps-Déplacer/Copier1[2]', #191 ) ;
#54 = CARTESIAN_POINT ( 'NONE',  ( 1.047444401652940007E-13, 0.3999999999999963585, 30.00000000000000000 ) ) ;
#55 = CYLINDRICAL_SURFACE ( 'NONE', #199, 0.2199999999999998623 ) ;
#56 = AXIS2_PLACEMENT_3D ( 'NONE', #24, #87, #59 ) ;
#57 = DIRECTION ( 'NONE',  ( 4.275831445896958607E-31, 1.000000000000000000, 1.224646799147353207E-16 ) ) ;
#58 = PLANE ( 'NONE',  #63 ) ;
#59 = DIRECTION ( 'NONE',  ( 4.275831445896958607E-31, 1.000000000000000000, 1.224646799147353207E-16 ) ) ;
#60 = APPROVAL_ROLE ( '' ) ;
#61 = PERSON_AND_ORGANIZATION ( #88, #34 ) ;
#62 = PERSON_AND_ORGANIZATION_ROLE ( 'design_owner' ) ;
#63 = AXIS2_PLACEMENT_3D ( 'NONE', #2, #106, #210 ) ;
#64 = PERSON_AND_ORGANIZATION ( #88, #34 ) ;
#65 = PRODUCT ( '36948', '36948', '', ( #186 ) ) ;
#66 = APPROVAL_ROLE ( '' ) ;
#67 = FACE_OUTER_BOUND ( 'NONE', #156, .T. ) ;
#68 = FACE_OUTER_BOUND ( 'NONE', #140, .T. ) ;
#69 = AXIS2_PLACEMENT_3D ( 'NONE', #84, #160, #192 ) ;
#70 = CARTESIAN_POINT ( 'NONE',  ( 6.982962677686265133E-15, -2.449293598294705921E-16, 1.999999999999999556 ) ) ;
#71 = DIRECTION ( 'NONE',  ( -3.491481338843133355E-15, 1.224646799147353207E-16, -1.000000000000000000 ) ) ;
#72 = CARTESIAN_POINT ( 'NONE',  ( 1.043952920314096810E-13, 0.4999999999999963363, 29.89999999999999858 ) ) ;
#73 = LOCAL_TIME ( 15, 46, 57.00000000000000000, #107 ) ;
#74 =( NAMED_UNIT ( * ) SI_UNIT ( $, .STERADIAN. ) SOLID_ANGLE_UNIT ( ) );
#75 = LOCAL_TIME ( 15, 46, 57.00000000000000000, #112 ) ;
#76 = DIRECTION ( 'NONE',  ( -3.491481338843133355E-15, 1.224646799147353207E-16, -1.000000000000000000 ) ) ;
#77 = CC_DESIGN_PERSON_AND_ORGANIZATION_ASSIGNMENT ( #167, #10, ( #110 ) ) ;
#78 = PERSON_AND_ORGANIZATION ( #88, #34 ) ;
#79 = APPROVAL_DATE_TIME ( #100, #217 ) ;
#80 = CIRCLE ( 'NONE', #99, 0.4000000000000000222 ) ;
#81 = DIRECTION ( 'NONE',  ( 3.491481338843133355E-15, -1.224646799147353207E-16, 1.000000000000000000 ) ) ;
#82 = DIRECTION ( 'NONE',  ( -4.275831445896958607E-31, -1.000000000000000000, -1.224646799147353207E-16 ) ) ;
#83 = ADVANCED_FACE ( 'NONE', ( #102, #124 ), #223, .T. ) ;
#84 = CARTESIAN_POINT ( 'NONE',  ( 6.982962677686265133E-15, -2.449293598294705921E-16, 1.999999999999999556 ) ) ;
#85 =( GEOMETRIC_REPRESENTATION_CONTEXT ( 3 ) GLOBAL_UNCERTAINTY_ASSIGNED_CONTEXT ( ( #132 ) ) GLOBAL_UNIT_ASSIGNED_CONTEXT ( ( #25, #7, #74 ) ) REPRESENTATION_CONTEXT ( 'NONE', 'WORKASPACE' ) );
#86 = DIRECTION ( 'NONE',  ( -3.491481338843133355E-15, 1.224646799147353207E-16, -1.000000000000000000 ) ) ;
#87 = DIRECTION ( 'NONE',  ( -3.491481338843133355E-15, 1.224646799147353207E-16, -1.000000000000000000 ) ) ;
#88 = PERSON ( 'UNSPECIFIED', 'UNSPECIFIED', 'UNSPECIFIED', ('UNSPECIFIED'), ('UNSPECIFIED'), ('UNSPECIFIED') ) ;
#89 = AXIS2_PLACEMENT_3D ( 'NONE', #183, #76, #92 ) ;
#90 = APPROVAL_DATE_TIME ( #32, #8 ) ;
#91 = ADVANCED_FACE ( 'NONE', ( #42 ), #58, .T. ) ;
#92 = DIRECTION ( 'NONE',  ( 0.0000000000000000000, 1.000000000000000000, 0.0000000000000000000 ) ) ;
#93 = PERSON_AND_ORGANIZATION ( #88, #34 ) ;
#94 = CC_DESIGN_SECURITY_CLASSIFICATION ( #21, ( #110 ) ) ;
#95 = ORIENTED_EDGE ( 'NONE', *, *, #26, .T. ) ;
#96 = DATE_TIME_ROLE ( 'creation_date' ) ;
#97 = ORIENTED_EDGE ( 'NONE', *, *, #121, .F. ) ;
#98 = CC_DESIGN_PERSON_AND_ORGANIZATION_ASSIGNMENT ( #78, #166, ( #21 ) ) ;
#99 = AXIS2_PLACEMENT_3D ( 'NONE', #157, #20, #163 ) ;
#100 = DATE_AND_TIME ( #172, #168 ) ;
#101 = ADVANCED_BREP_SHAPE_REPRESENTATION ( '36948', ( #129, #53, #3 ), #85 ) ;
#102 = FACE_BOUND ( 'NONE', #154, .T. ) ;
#103 = DIRECTION ( 'NONE',  ( 0.0000000000000000000, 1.000000000000000000, 0.0000000000000000000 ) ) ;
#104 = CARTESIAN_POINT ( 'NONE',  ( 1.047444401652940007E-13, -3.673940397442059178E-15, 30.00000000000000000 ) ) ;
#105 = FACE_OUTER_BOUND ( 'NONE', #136, .T. ) ;
#106 = DIRECTION ( 'NONE',  ( 3.491481338843133355E-15, -1.224646799147353207E-16, 1.000000000000000000 ) ) ;
#107 = COORDINATED_UNIVERSAL_TIME_OFFSET ( 1, 0, .AHEAD. ) ;
#108 = DESIGN_CONTEXT ( 'detailed design', #37, 'design' ) ;
#109 = PERSON_AND_ORGANIZATION ( #88, #34 ) ;
#110 = PRODUCT_DEFINITION_FORMATION_WITH_SPECIFIED_SOURCE ( 'ANY', '', #65, .NOT_KNOWN. ) ;
#111 = ADVANCED_FACE ( 'NONE', ( #18 ), #38, .F. ) ;
#112 = COORDINATED_UNIVERSAL_TIME_OFFSET ( 1, 0, .AHEAD. ) ;
#113 = ORIENTED_EDGE ( 'NONE', *, *, #180, .T. ) ;
#114 = APPROVAL_STATUS ( 'not_yet_approved' ) ;
#115 = ORIENTED_EDGE ( 'NONE', *, *, #118, .T. ) ;
#116 = LOCAL_TIME ( 15, 46, 57.00000000000000000, #131 ) ;
#117 = CC_DESIGN_APPROVAL ( #8, ( #110 ) ) ;
#118 = EDGE_CURVE ( 'NONE', #158, #158, #46, .T. ) ;
#119 = EDGE_LOOP ( 'NONE', ( #221 ) ) ;
#120 = VERTEX_POINT ( 'NONE', #190 ) ;
#121 = EDGE_CURVE ( 'NONE', #6, #6, #187, .T. ) ;
#122 = AXIS2_PLACEMENT_3D ( 'NONE', #144, #81, #4 ) ;
#123 = DIRECTION ( 'NONE',  ( 0.0000000000000000000, 1.000000000000000000, 0.0000000000000000000 ) ) ;
#124 = FACE_OUTER_BOUND ( 'NONE', #12, .T. ) ;
#125 = APPLICATION_CONTEXT ( 'configuration controlled 3d designs of mechanical parts and assemblies' ) ;
#126 = DIRECTION ( 'NONE',  ( -3.491481338843133355E-15, 1.224646799147353207E-16, -1.000000000000000000 ) ) ;
#127 = CIRCLE ( 'NONE', #215, 0.2199999999999997791 ) ;
#128 = VERTEX_POINT ( 'NONE', #174 ) ;
#129 = MANIFOLD_SOLID_BREP ( 'Corps-Déplacer/Copier1[1]', #39 ) ;
#130 = COORDINATED_UNIVERSAL_TIME_OFFSET ( 1, 0, .AHEAD. ) ;
#131 = COORDINATED_UNIVERSAL_TIME_OFFSET ( 1, 0, .AHEAD. ) ;
#132 = UNCERTAINTY_MEASURE_WITH_UNIT (LENGTH_MEASURE( 1.000000000000000082E-05 ), #25, 'distance_accuracy_value', 'NONE');
#133 = APPROVAL_DATE_TIME ( #45, #153 ) ;
#134 = AXIS2_PLACEMENT_3D ( 'NONE', #70, #126, #213 ) ;
#135 = APPLICATION_PROTOCOL_DEFINITION ( 'international standard', 'config_control_design', 1994, #37 ) ;
#136 = EDGE_LOOP ( 'NONE', ( #115 ) ) ;
#137 = DATE_AND_TIME ( #152, #75 ) ;
#138 = ORIENTED_EDGE ( 'NONE', *, *, #26, .F. ) ;
#139 = ADVANCED_FACE ( 'NONE', ( #68, #41 ), #150, .T. ) ;
#140 = EDGE_LOOP ( 'NONE', ( #97 ) ) ;
#141 = AXIS2_PLACEMENT_3D ( 'NONE', #202, #196, #82 ) ;
#142 = EDGE_CURVE ( 'NONE', #209, #209, #80, .T. ) ;
#143 = FACE_OUTER_BOUND ( 'NONE', #171, .T. ) ;
#144 = CARTESIAN_POINT ( 'NONE',  ( 1.063147068775385095E-14, -3.729017939503191252E-16, 3.044974226119300909 ) ) ;
#145 = FACE_OUTER_BOUND ( 'NONE', #48, .T. ) ;
#146 = DIRECTION ( 'NONE',  ( 3.491481338843133355E-15, -1.224646799147353207E-16, 1.000000000000000000 ) ) ;
#147 = SECURITY_CLASSIFICATION_LEVEL ( 'unclassified' ) ;
#148 = DIRECTION ( 'NONE',  ( 1.000000000000000000, 0.0000000000000000000, 0.0000000000000000000 ) ) ;
#149 = DIRECTION ( 'NONE',  ( 0.0000000000000000000, 0.0000000000000000000, 1.000000000000000000 ) ) ;
#150 = CONICAL_SURFACE ( 'NONE', #13, 0.4000000000000000222, 0.7853981633974512766 ) ;
#151 = FACE_OUTER_BOUND ( 'NONE', #185, .T. ) ;
#152 = CALENDAR_DATE ( 2021, 7, 10 ) ;
#153 = APPROVAL ( #114, 'UNSPECIFIED' ) ;
#154 = EDGE_LOOP ( 'NONE', ( #204 ) ) ;
#155 = AXIS2_PLACEMENT_3D ( 'NONE', #193, #179, #173 ) ;
#156 = EDGE_LOOP ( 'NONE', ( #15 ) ) ;
#157 = CARTESIAN_POINT ( 'NONE',  ( 1.047444401652940007E-13, -3.673940397442059178E-15, 30.00000000000000000 ) ) ;
#158 = VERTEX_POINT ( 'NONE', #44 ) ;
#159 = CC_DESIGN_APPROVAL ( #153, ( #176 ) ) ;
#160 = DIRECTION ( 'NONE',  ( -3.491481338843133355E-15, 1.224646799147353207E-16, -1.000000000000000000 ) ) ;
#161 = CC_DESIGN_PERSON_AND_ORGANIZATION_ASSIGNMENT ( #93, #170, ( #110 ) ) ;
#162 = DIRECTION ( 'NONE',  ( 4.377113509970994556E-31, 1.000000000000000000, 1.232047923278983432E-16 ) ) ;
#163 = DIRECTION ( 'NONE',  ( 0.0000000000000000000, 1.000000000000000000, 0.0000000000000000000 ) ) ;
#164 = CC_DESIGN_DATE_AND_TIME_ASSIGNMENT ( #137, #203, ( #21 ) ) ;
#165 = VERTEX_POINT ( 'NONE', #11 ) ;
#166 = PERSON_AND_ORGANIZATION_ROLE ( 'classification_officer' ) ;
#167 = PERSON_AND_ORGANIZATION ( #88, #34 ) ;
#168 = LOCAL_TIME ( 15, 46, 57.00000000000000000, #130 ) ;
#169 = CC_DESIGN_PERSON_AND_ORGANIZATION_ASSIGNMENT ( #61, #200, ( #176 ) ) ;
#170 = PERSON_AND_ORGANIZATION_ROLE ( 'creator' ) ;
#171 = EDGE_LOOP ( 'NONE', ( #188 ) ) ;
#172 = CALENDAR_DATE ( 2021, 7, 10 ) ;
#173 = DIRECTION ( 'NONE',  ( 4.275831445896958607E-31, 1.000000000000000000, 1.224646799147353207E-16 ) ) ;
#174 = CARTESIAN_POINT ( 'NONE',  ( 1.063147068775385095E-14, 0.4999999999999963363, 3.044974226119300909 ) ) ;
#175 = DIRECTION ( 'NONE',  ( -3.491481338843133355E-15, 1.224646799147353207E-16, -1.000000000000000000 ) ) ;
#176 = PRODUCT_DEFINITION ( 'UNKNOWN', '', #110, #108 ) ;
#177 = CONICAL_SURFACE ( 'NONE', #211, 0.2199999999999997791, 1.029744258676649649 ) ;
#178 = DIRECTION ( 'NONE',  ( -3.491481338843133355E-15, 1.224646799147353207E-16, -1.000000000000000000 ) ) ;
#179 = DIRECTION ( 'NONE',  ( -3.491481338843133355E-15, 1.224646799147353207E-16, -1.000000000000000000 ) ) ;
#180 = EDGE_CURVE ( 'NONE', #120, #120, #52, .T. ) ;
#181 = APPROVAL_PERSON_ORGANIZATION ( #49, #153, #66 ) ;
#182 = CALENDAR_DATE ( 2021, 7, 10 ) ;
#183 = CARTESIAN_POINT ( 'NONE',  ( 1.063147068775385095E-14, -3.729017939503191252E-16, 3.044974226119300909 ) ) ;
#184 = CARTESIAN_POINT ( 'NONE',  ( 0.0000000000000000000, 0.0000000000000000000, 0.0000000000000000000 ) ) ;
#185 = EDGE_LOOP ( 'NONE', ( #113 ) ) ;
#186 = MECHANICAL_CONTEXT ( 'NONE', #125, 'mechanical' ) ;
#187 = CIRCLE ( 'NONE', #43, 0.5000000000000000000 ) ;
#188 = ORIENTED_EDGE ( 'NONE', *, *, #212, .T. ) ;
#189 = ADVANCED_FACE ( 'NONE', ( #143 ), #177, .T. ) ;
#190 = CARTESIAN_POINT ( 'NONE',  ( 6.982962677686265133E-15, 0.2199999999999996958, 1.999999999999999556 ) ) ;
#191 = CLOSED_SHELL ( 'NONE', ( #189, #205, #91 ) ) ;
#192 = DIRECTION ( 'NONE',  ( 0.0000000000000000000, 1.000000000000000000, 0.0000000000000000000 ) ) ;
#193 = CARTESIAN_POINT ( 'NONE',  ( 1.047444401652940007E-13, 2.999519565323660135E-33, 30.00000000000000000 ) ) ;
#194 = DIRECTION ( 'NONE',  ( -4.377113509970994556E-31, -1.000000000000000000, -1.232047923278983432E-16 ) ) ;
#195 = CC_DESIGN_APPROVAL ( #217, ( #21 ) ) ;
#196 = DIRECTION ( 'NONE',  ( 3.491481338843133355E-15, -1.224646799147353207E-16, 1.000000000000000000 ) ) ;
#197 = CALENDAR_DATE ( 2021, 7, 10 ) ;
#198 = CALENDAR_DATE ( 2021, 7, 10 ) ;
#199 = AXIS2_PLACEMENT_3D ( 'NONE', #1, #178, #57 ) ;
#200 = PERSON_AND_ORGANIZATION_ROLE ( 'creator' ) ;
#201 = CC_DESIGN_DATE_AND_TIME_ASSIGNMENT ( #47, #96, ( #176 ) ) ;
#202 = CARTESIAN_POINT ( 'NONE',  ( 6.982962677686266711E-15, 1.649735760928039332E-33, 2.000000000000000000 ) ) ;
#203 = DATE_TIME_ROLE ( 'classification_date' ) ;
#204 = ORIENTED_EDGE ( 'NONE', *, *, #180, .F. ) ;
#205 = ADVANCED_FACE ( 'NONE', ( #145, #105 ), #55, .T. ) ;
#206 = EDGE_LOOP ( 'NONE', ( #51 ) ) ;
#207 = CIRCLE ( 'NONE', #89, 0.4999999999999966693 ) ;
#208 = ORIENTED_EDGE ( 'NONE', *, *, #142, .F. ) ;
#209 = VERTEX_POINT ( 'NONE', #54 ) ;
#210 = DIRECTION ( 'NONE',  ( -4.275831445896958607E-31, -1.000000000000000000, -1.224646799147353207E-16 ) ) ;
#211 = AXIS2_PLACEMENT_3D ( 'NONE', #40, #146, #194 ) ;
#212 = EDGE_CURVE ( 'NONE', #165, #165, #127, .T. ) ;
#213 = DIRECTION ( 'NONE',  ( 0.0000000000000000000, 1.000000000000000000, 0.0000000000000000000 ) ) ;
#214 = FACE_OUTER_BOUND ( 'NONE', #36, .T. ) ;
#215 = AXIS2_PLACEMENT_3D ( 'NONE', #22, #86, #162 ) ;
#216 = APPROVAL_STATUS ( 'not_yet_approved' ) ;
#217 = APPROVAL ( #216, 'UNSPECIFIED' ) ;
#218 = LOCAL_TIME ( 15, 46, 57.00000000000000000, #28 ) ;
#219 = APPLICATION_PROTOCOL_DEFINITION ( 'international standard', 'config_control_design', 1994, #125 ) ;
#220 = PLANE ( 'NONE',  #141 ) ;
#221 = ORIENTED_EDGE ( 'NONE', *, *, #142, .T. ) ;
#222 = ADVANCED_FACE ( 'NONE', ( #214, #67 ), #19, .T. ) ;
#223 = CONICAL_SURFACE ( 'NONE', #122, 0.4999999999999966693, 0.2617993877991427465 ) ;
ENDSEC;
END-ISO-10303-21;
