ISO-10303-21;
HEADER;
FILE_DESCRIPTION (( 'STEP AP203' ),
    '1' );
FILE_NAME ('36947.step',
    '2021-10-07T13:46:56',
    ( '' ),
    ( '' ),
    'SwSTEP 2.0',
    'SolidWorks 2019',
    '' );
FILE_SCHEMA (( 'CONFIG_CONTROL_DESIGN' ));
ENDSEC;

DATA;
#1 = PERSON_AND_ORGANIZATION_ROLE ( 'creator' ) ;
#2 = CARTESIAN_POINT ( 'NONE',  ( 0.0000000000000000000, 0.0000000000000000000, 0.0000000000000000000 ) ) ;
#3 =( NAMED_UNIT ( * ) SI_UNIT ( $, .STERADIAN. ) SOLID_ANGLE_UNIT ( ) );
#4 = DESIGN_CONTEXT ( 'detailed design', #91, 'design' ) ;
#5 = CARTESIAN_POINT ( 'NONE',  ( 1.047444401652940007E-13, 0.3999999999999963585, 30.00000000000000000 ) ) ;
#6 = CLOSED_SHELL ( 'NONE', ( #174, #49, #143, #132, #15 ) ) ;
#7 = LOCAL_TIME ( 15, 46, 56.00000000000000000, #21 ) ;
#8 = PERSON_AND_ORGANIZATION ( #130, #97 ) ;
#9 = DIRECTION ( 'NONE',  ( -4.275831445896958607E-31, -1.000000000000000000, -1.224646799147353207E-16 ) ) ;
#10 = DIRECTION ( 'NONE',  ( 3.491481338843133355E-15, -1.224646799147353207E-16, 1.000000000000000000 ) ) ;
#11 = DIRECTION ( 'NONE',  ( 3.491481338843133355E-15, -1.224646799147353207E-16, 1.000000000000000000 ) ) ;
#12 = APPROVAL_STATUS ( 'not_yet_approved' ) ;
#13 = EDGE_LOOP ( 'NONE', ( #197 ) ) ;
#14 = DIRECTION ( 'NONE',  ( 4.275831445896958607E-31, 1.000000000000000000, 1.224646799147353207E-16 ) ) ;
#15 = ADVANCED_FACE ( 'NONE', ( #104 ), #177, .F. ) ;
#16 = PRODUCT ( '36947', '36947', '', ( #81 ) ) ;
#17 = PERSON_AND_ORGANIZATION ( #130, #97 ) ;
#18 = DIRECTION ( 'NONE',  ( 1.000000000000000000, 0.0000000000000000000, 0.0000000000000000000 ) ) ;
#19 = FACE_BOUND ( 'NONE', #178, .T. ) ;
#20 = CC_DESIGN_PERSON_AND_ORGANIZATION_ASSIGNMENT ( #137, #205, ( #59 ) ) ;
#21 = COORDINATED_UNIVERSAL_TIME_OFFSET ( 1, 0, .AHEAD. ) ;
#22 = EDGE_LOOP ( 'NONE', ( #39 ) ) ;
#23 = AXIS2_PLACEMENT_3D ( 'NONE', #79, #125, #126 ) ;
#24 = ORIENTED_EDGE ( 'NONE', *, *, #182, .F. ) ;
#25 = PLANE ( 'NONE',  #150 ) ;
#26 = CC_DESIGN_PERSON_AND_ORGANIZATION_ASSIGNMENT ( #17, #208, ( #16 ) ) ;
#27 =( GEOMETRIC_REPRESENTATION_CONTEXT ( 3 ) GLOBAL_UNCERTAINTY_ASSIGNED_CONTEXT ( ( #31 ) ) GLOBAL_UNIT_ASSIGNED_CONTEXT ( ( #29, #184, #3 ) ) REPRESENTATION_CONTEXT ( 'NONE', 'WORKASPACE' ) );
#28 = FACE_OUTER_BOUND ( 'NONE', #105, .T. ) ;
#29 =( LENGTH_UNIT ( ) NAMED_UNIT ( * ) SI_UNIT ( .MILLI., .METRE. ) );
#30 = DIRECTION ( 'NONE',  ( -3.491481338843133355E-15, 1.224646799147353207E-16, -1.000000000000000000 ) ) ;
#31 = UNCERTAINTY_MEASURE_WITH_UNIT (LENGTH_MEASURE( 1.000000000000000082E-05 ), #29, 'distance_accuracy_value', 'NONE');
#32 = VERTEX_POINT ( 'NONE', #169 ) ;
#33 = AXIS2_PLACEMENT_3D ( 'NONE', #180, #133, #98 ) ;
#34 = DATE_TIME_ROLE ( 'classification_date' ) ;
#35 = DIRECTION ( 'NONE',  ( 0.0000000000000000000, 1.000000000000000000, 0.0000000000000000000 ) ) ;
#36 = DIRECTION ( 'NONE',  ( -3.491481338843133355E-15, 1.224646799147353207E-16, -1.000000000000000000 ) ) ;
#37 = AXIS2_PLACEMENT_3D ( 'NONE', #93, #89, #157 ) ;
#38 = SECURITY_CLASSIFICATION ( '', '', #215 ) ;
#39 = ORIENTED_EDGE ( 'NONE', *, *, #120, .F. ) ;
#40 = MANIFOLD_SOLID_BREP ( 'Corps-Déplacer/Copier1[2]', #124 ) ;
#41 = ORIENTED_EDGE ( 'NONE', *, *, #87, .F. ) ;
#42 = CONICAL_SURFACE ( 'NONE', #131, 0.4999999999999966693, 0.2617993877991426910 ) ;
#43 = DIRECTION ( 'NONE',  ( 0.0000000000000000000, 1.000000000000000000, 0.0000000000000000000 ) ) ;
#44 = ADVANCED_FACE ( 'NONE', ( #123 ), #25, .T. ) ;
#45 = APPROVAL_ROLE ( '' ) ;
#46 = CC_DESIGN_PERSON_AND_ORGANIZATION_ASSIGNMENT ( #119, #121, ( #38 ) ) ;
#47 = DATE_AND_TIME ( #102, #204 ) ;
#48 = CARTESIAN_POINT ( 'NONE',  ( 0.0000000000000000000, 0.0000000000000000000, 0.0000000000000000000 ) ) ;
#49 = ADVANCED_FACE ( 'NONE', ( #196, #96 ), #42, .T. ) ;
#50 = DIRECTION ( 'NONE',  ( 4.478906847412180965E-31, 1.000000000000000000, 1.260700200564541324E-16 ) ) ;
#51 = COORDINATED_UNIVERSAL_TIME_OFFSET ( 1, 0, .AHEAD. ) ;
#52 = CARTESIAN_POINT ( 'NONE',  ( 1.043952920314096810E-13, 0.4999999999999963363, 29.89999999999999858 ) ) ;
#53 = APPROVAL_PERSON_ORGANIZATION ( #152, #211, #155 ) ;
#54 = EDGE_CURVE ( 'NONE', #63, #63, #172, .T. ) ;
#55 = EDGE_LOOP ( 'NONE', ( #148 ) ) ;
#56 = AXIS2_PLACEMENT_3D ( 'NONE', #118, #10, #62 ) ;
#57 = ADVANCED_BREP_SHAPE_REPRESENTATION ( '36947', ( #191, #40, #151 ), #27 ) ;
#58 = ORIENTED_EDGE ( 'NONE', *, *, #182, .T. ) ;
#59 = PRODUCT_DEFINITION_FORMATION_WITH_SPECIFIED_SOURCE ( 'ANY', '', #16, .NOT_KNOWN. ) ;
#60 = CARTESIAN_POINT ( 'NONE',  ( 1.043952920314096810E-13, -3.661693929450586610E-15, 29.89999999999999858 ) ) ;
#61 = CIRCLE ( 'NONE', #221, 0.2149999999999999412 ) ;
#62 = DIRECTION ( 'NONE',  ( -4.478906847412180965E-31, -1.000000000000000000, -1.260700200564541324E-16 ) ) ;
#63 = VERTEX_POINT ( 'NONE', #5 ) ;
#64 = DIRECTION ( 'NONE',  ( 4.275831445896958607E-31, 1.000000000000000000, 1.224646799147353207E-16 ) ) ;
#65 = DIRECTION ( 'NONE',  ( 0.0000000000000000000, 0.0000000000000000000, 1.000000000000000000 ) ) ;
#66 = APPLICATION_CONTEXT ( 'configuration controlled 3d designs of mechanical parts and assemblies' ) ;
#67 = DATE_AND_TIME ( #187, #7 ) ;
#68 = CIRCLE ( 'NONE', #23, 0.2149999999999999412 ) ;
#69 = VERTEX_POINT ( 'NONE', #52 ) ;
#70 = APPROVAL_ROLE ( '' ) ;
#71 = FACE_OUTER_BOUND ( 'NONE', #127, .T. ) ;
#72 = DIRECTION ( 'NONE',  ( -4.275831445896958607E-31, -1.000000000000000000, -1.224646799147353207E-16 ) ) ;
#73 = DIRECTION ( 'NONE',  ( 0.0000000000000000000, -1.000000000000000000, 0.0000000000000000000 ) ) ;
#74 = EDGE_LOOP ( 'NONE', ( #58 ) ) ;
#75 = AXIS2_PLACEMENT_3D ( 'NONE', #2, #100, #64 ) ;
#76 = EDGE_LOOP ( 'NONE', ( #213 ) ) ;
#77 = ORIENTED_EDGE ( 'NONE', *, *, #223, .F. ) ;
#78 = AXIS2_PLACEMENT_3D ( 'NONE', #140, #207, #50 ) ;
#79 = CARTESIAN_POINT ( 'NONE',  ( 6.982962677686265133E-15, -2.449293598294705921E-16, 1.999999999999999556 ) ) ;
#80 = CC_DESIGN_APPROVAL ( #211, ( #166 ) ) ;
#81 = MECHANICAL_CONTEXT ( 'NONE', #66, 'mechanical' ) ;
#82 = APPLICATION_PROTOCOL_DEFINITION ( 'international standard', 'config_control_design', 1994, #66 ) ;
#83 = CALENDAR_DATE ( 2021, 7, 10 ) ;
#84 = AXIS2_PLACEMENT_3D ( 'NONE', #116, #36, #14 ) ;
#85 = APPROVAL_PERSON_ORGANIZATION ( #94, #203, #70 ) ;
#86 = DATE_TIME_ROLE ( 'creation_date' ) ;
#87 = EDGE_CURVE ( 'NONE', #69, #69, #103, .T. ) ;
#88 = PERSON_AND_ORGANIZATION ( #130, #97 ) ;
#89 = DIRECTION ( 'NONE',  ( -3.491481338843133355E-15, 1.224646799147353207E-16, -1.000000000000000000 ) ) ;
#90 = CONICAL_SURFACE ( 'NONE', #33, 0.4000000000000000222, 0.7853981633974512766 ) ;
#91 = APPLICATION_CONTEXT ( 'configuration controlled 3d designs of mechanical parts and assemblies' ) ;
#92 = CC_DESIGN_DATE_AND_TIME_ASSIGNMENT ( #142, #86, ( #166 ) ) ;
#93 = CARTESIAN_POINT ( 'NONE',  ( 1.047444401652940007E-13, 2.999519565323660135E-33, 30.00000000000000000 ) ) ;
#94 = PERSON_AND_ORGANIZATION ( #130, #97 ) ;
#95 = EDGE_LOOP ( 'NONE', ( #24 ) ) ;
#96 = FACE_OUTER_BOUND ( 'NONE', #74, .T. ) ;
#97 = ORGANIZATION ( 'UNSPECIFIED', 'UNSPECIFIED', '' ) ;
#98 = DIRECTION ( 'NONE',  ( 0.0000000000000000000, 1.000000000000000000, 0.0000000000000000000 ) ) ;
#99 = DIRECTION ( 'NONE',  ( -3.491481338843133355E-15, 1.224646799147353207E-16, -1.000000000000000000 ) ) ;
#100 = DIRECTION ( 'NONE',  ( -3.491481338843133355E-15, 1.224646799147353207E-16, -1.000000000000000000 ) ) ;
#101 = VERTEX_POINT ( 'NONE', #206 ) ;
#102 = CALENDAR_DATE ( 2021, 7, 10 ) ;
#103 = CIRCLE ( 'NONE', #149, 0.5000000000000000000 ) ;
#104 = FACE_OUTER_BOUND ( 'NONE', #55, .T. ) ;
#105 = EDGE_LOOP ( 'NONE', ( #129 ) ) ;
#106 = DATE_AND_TIME ( #195, #108 ) ;
#107 = EDGE_LOOP ( 'NONE', ( #163 ) ) ;
#108 = LOCAL_TIME ( 15, 46, 56.00000000000000000, #214 ) ;
#109 = CARTESIAN_POINT ( 'NONE',  ( 1.047444401652940007E-13, -3.673940397442059178E-15, 30.00000000000000000 ) ) ;
#110 = ADVANCED_FACE ( 'NONE', ( #181, #71 ), #153, .T. ) ;
#111 = CARTESIAN_POINT ( 'NONE',  ( 6.982962677686265133E-15, -2.449293598294705921E-16, 1.999999999999999556 ) ) ;
#112 = CONICAL_SURFACE ( 'NONE', #56, 0.2149999999999997746, 1.029744258676649649 ) ;
#113 = CC_DESIGN_APPROVAL ( #218, ( #59 ) ) ;
#114 = APPROVAL_STATUS ( 'not_yet_approved' ) ;
#115 = DIRECTION ( 'NONE',  ( 3.491481338843133355E-15, -1.224646799147353207E-16, 1.000000000000000000 ) ) ;
#116 = CARTESIAN_POINT ( 'NONE',  ( 0.0000000000000000000, 0.0000000000000000000, 0.0000000000000000000 ) ) ;
#117 = VERTEX_POINT ( 'NONE', #154 ) ;
#118 = CARTESIAN_POINT ( 'NONE',  ( 4.510471322948033022E-16, -1.582060372725483486E-17, 0.1291850330909267430 ) ) ;
#119 = PERSON_AND_ORGANIZATION ( #130, #97 ) ;
#120 = EDGE_CURVE ( 'NONE', #171, #171, #216, .T. ) ;
#121 = PERSON_AND_ORGANIZATION_ROLE ( 'classification_officer' ) ;
#122 = PERSON_AND_ORGANIZATION_ROLE ( 'design_supplier' ) ;
#123 = FACE_OUTER_BOUND ( 'NONE', #193, .T. ) ;
#124 = CLOSED_SHELL ( 'NONE', ( #179, #110, #44 ) ) ;
#125 = DIRECTION ( 'NONE',  ( -3.491481338843133355E-15, 1.224646799147353207E-16, -1.000000000000000000 ) ) ;
#126 = DIRECTION ( 'NONE',  ( 0.0000000000000000000, 1.000000000000000000, 0.0000000000000000000 ) ) ;
#127 = EDGE_LOOP ( 'NONE', ( #219 ) ) ;
#128 = CC_DESIGN_DATE_AND_TIME_ASSIGNMENT ( #106, #34, ( #38 ) ) ;
#129 = ORIENTED_EDGE ( 'NONE', *, *, #200, .T. ) ;
#130 = PERSON ( 'UNSPECIFIED', 'UNSPECIFIED', 'UNSPECIFIED', ('UNSPECIFIED'), ('UNSPECIFIED'), ('UNSPECIFIED') ) ;
#131 = AXIS2_PLACEMENT_3D ( 'NONE', #160, #159, #73 ) ;
#132 = ADVANCED_FACE ( 'NONE', ( #170, #19 ), #90, .T. ) ;
#133 = DIRECTION ( 'NONE',  ( -3.491481338843133355E-15, 1.224646799147353207E-16, -1.000000000000000000 ) ) ;
#134 = DIRECTION ( 'NONE',  ( 0.0000000000000000000, 1.000000000000000000, 0.0000000000000000000 ) ) ;
#135 = CARTESIAN_POINT ( 'NONE',  ( 6.982962677686266711E-15, 1.612241766361492960E-33, 2.000000000000000000 ) ) ;
#136 = CARTESIAN_POINT ( 'NONE',  ( 1.069662261650505922E-14, -3.751870159881914460E-16, 3.063634480157146012 ) ) ;
#137 = PERSON_AND_ORGANIZATION ( #130, #97 ) ;
#138 = PRODUCT_DEFINITION_SHAPE ( 'NONE', 'NONE',  #166 ) ;
#139 = APPROVAL_STATUS ( 'not_yet_approved' ) ;
#140 = CARTESIAN_POINT ( 'NONE',  ( 4.510471322948033022E-16, -1.582060372725483486E-17, 0.1291850330909267430 ) ) ;
#141 = PERSON_AND_ORGANIZATION ( #130, #97 ) ;
#142 = DATE_AND_TIME ( #83, #158 ) ;
#143 = ADVANCED_FACE ( 'NONE', ( #190, #176 ), #144, .T. ) ;
#144 = CYLINDRICAL_SURFACE ( 'NONE', #84, 0.4999999999999982792 ) ;
#145 = COORDINATED_UNIVERSAL_TIME_OFFSET ( 1, 0, .AHEAD. ) ;
#146 = CC_DESIGN_PERSON_AND_ORGANIZATION_ASSIGNMENT ( #88, #122, ( #59 ) ) ;
#147 = DATE_AND_TIME ( #212, #162 ) ;
#148 = ORIENTED_EDGE ( 'NONE', *, *, #54, .F. ) ;
#149 = AXIS2_PLACEMENT_3D ( 'NONE', #60, #201, #43 ) ;
#150 = AXIS2_PLACEMENT_3D ( 'NONE', #220, #11, #72 ) ;
#151 = AXIS2_PLACEMENT_3D ( 'NONE', #48, #65, #18 ) ;
#152 = PERSON_AND_ORGANIZATION ( #130, #97 ) ;
#153 = CYLINDRICAL_SURFACE ( 'NONE', #75, 0.2149999999999998579 ) ;
#154 = CARTESIAN_POINT ( 'NONE',  ( 6.982962677686265133E-15, 0.2149999999999996914, 1.999999999999999556 ) ) ;
#155 = APPROVAL_ROLE ( '' ) ;
#156 = APPROVAL_DATE_TIME ( #147, #203 ) ;
#157 = DIRECTION ( 'NONE',  ( 4.275831445896958607E-31, 1.000000000000000000, 1.224646799147353207E-16 ) ) ;
#158 = LOCAL_TIME ( 15, 46, 56.00000000000000000, #51 ) ;
#159 = DIRECTION ( 'NONE',  ( 3.491481338843133355E-15, -1.224646799147353207E-16, 1.000000000000000000 ) ) ;
#160 = CARTESIAN_POINT ( 'NONE',  ( 1.069662261650505922E-14, -3.751870159881914460E-16, 3.063634480157146012 ) ) ;
#161 = CIRCLE ( 'NONE', #199, 0.4999999999999966693 ) ;
#162 = LOCAL_TIME ( 15, 46, 56.00000000000000000, #145 ) ;
#163 = ORIENTED_EDGE ( 'NONE', *, *, #87, .T. ) ;
#164 = DIRECTION ( 'NONE',  ( -3.491481338843133355E-15, 1.224646799147353207E-16, -1.000000000000000000 ) ) ;
#165 = AXIS2_PLACEMENT_3D ( 'NONE', #135, #115, #9 ) ;
#166 = PRODUCT_DEFINITION ( 'UNKNOWN', '', #59, #4 ) ;
#167 = AXIS2_PLACEMENT_3D ( 'NONE', #109, #99, #134 ) ;
#168 = CARTESIAN_POINT ( 'NONE',  ( 4.510471322948034008E-16, 0.2149999999999997469, 0.1291850330909267708 ) ) ;
#169 = CARTESIAN_POINT ( 'NONE',  ( 6.982962677686265133E-15, 0.2149999999999996914, 1.999999999999999556 ) ) ;
#170 = FACE_OUTER_BOUND ( 'NONE', #194, .T. ) ;
#171 = VERTEX_POINT ( 'NONE', #168 ) ;
#172 = CIRCLE ( 'NONE', #167, 0.4000000000000000222 ) ;
#173 = APPROVAL_DATE_TIME ( #47, #218 ) ;
#174 = ADVANCED_FACE ( 'NONE', ( #28 ), #202, .F. ) ;
#175 = PRODUCT_RELATED_PRODUCT_CATEGORY ( 'detail', '', ( #16 ) ) ;
#176 = FACE_OUTER_BOUND ( 'NONE', #107, .T. ) ;
#177 = PLANE ( 'NONE',  #37 ) ;
#178 = EDGE_LOOP ( 'NONE', ( #198 ) ) ;
#179 = ADVANCED_FACE ( 'NONE', ( #189 ), #112, .T. ) ;
#180 = CARTESIAN_POINT ( 'NONE',  ( 1.047444401652940007E-13, -3.673940397442059178E-15, 30.00000000000000000 ) ) ;
#181 = FACE_OUTER_BOUND ( 'NONE', #22, .T. ) ;
#182 = EDGE_CURVE ( 'NONE', #101, #101, #161, .T. ) ;
#183 = APPROVAL_DATE_TIME ( #67, #211 ) ;
#184 =( NAMED_UNIT ( * ) PLANE_ANGLE_UNIT ( ) SI_UNIT ( $, .RADIAN. ) );
#185 = CC_DESIGN_APPROVAL ( #203, ( #38 ) ) ;
#186 = CC_DESIGN_PERSON_AND_ORGANIZATION_ASSIGNMENT ( #141, #1, ( #166 ) ) ;
#187 = CALENDAR_DATE ( 2021, 7, 10 ) ;
#188 = COORDINATED_UNIVERSAL_TIME_OFFSET ( 1, 0, .AHEAD. ) ;
#189 = FACE_OUTER_BOUND ( 'NONE', #76, .T. ) ;
#190 = FACE_OUTER_BOUND ( 'NONE', #95, .T. ) ;
#191 = MANIFOLD_SOLID_BREP ( 'Corps-Déplacer/Copier1[1]', #6 ) ;
#192 = SHAPE_DEFINITION_REPRESENTATION ( #138, #57 ) ;
#193 = EDGE_LOOP ( 'NONE', ( #77 ) ) ;
#194 = EDGE_LOOP ( 'NONE', ( #41 ) ) ;
#195 = CALENDAR_DATE ( 2021, 7, 10 ) ;
#196 = FACE_BOUND ( 'NONE', #13, .T. ) ;
#197 = ORIENTED_EDGE ( 'NONE', *, *, #200, .F. ) ;
#198 = ORIENTED_EDGE ( 'NONE', *, *, #54, .T. ) ;
#199 = AXIS2_PLACEMENT_3D ( 'NONE', #136, #164, #35 ) ;
#200 = EDGE_CURVE ( 'NONE', #117, #117, #68, .T. ) ;
#201 = DIRECTION ( 'NONE',  ( -3.491481338843133355E-15, 1.224646799147353207E-16, -1.000000000000000000 ) ) ;
#202 = PLANE ( 'NONE',  #165 ) ;
#203 = APPROVAL ( #12, 'UNSPECIFIED' ) ;
#204 = LOCAL_TIME ( 15, 46, 56.00000000000000000, #188 ) ;
#205 = PERSON_AND_ORGANIZATION_ROLE ( 'creator' ) ;
#206 = CARTESIAN_POINT ( 'NONE',  ( 1.069662261650505922E-14, 0.4999999999999963363, 3.063634480157146012 ) ) ;
#207 = DIRECTION ( 'NONE',  ( -3.491481338843133355E-15, 1.224646799147353207E-16, -1.000000000000000000 ) ) ;
#208 = PERSON_AND_ORGANIZATION_ROLE ( 'design_owner' ) ;
#209 = APPLICATION_PROTOCOL_DEFINITION ( 'international standard', 'config_control_design', 1994, #91 ) ;
#210 = DIRECTION ( 'NONE',  ( 0.0000000000000000000, 1.000000000000000000, 0.0000000000000000000 ) ) ;
#211 = APPROVAL ( #114, 'UNSPECIFIED' ) ;
#212 = CALENDAR_DATE ( 2021, 7, 10 ) ;
#213 = ORIENTED_EDGE ( 'NONE', *, *, #120, .T. ) ;
#214 = COORDINATED_UNIVERSAL_TIME_OFFSET ( 1, 0, .AHEAD. ) ;
#215 = SECURITY_CLASSIFICATION_LEVEL ( 'unclassified' ) ;
#216 = CIRCLE ( 'NONE', #78, 0.2149999999999997746 ) ;
#217 = CC_DESIGN_SECURITY_CLASSIFICATION ( #38, ( #59 ) ) ;
#218 = APPROVAL ( #139, 'UNSPECIFIED' ) ;
#219 = ORIENTED_EDGE ( 'NONE', *, *, #223, .T. ) ;
#220 = CARTESIAN_POINT ( 'NONE',  ( 6.982962677686266711E-15, 1.612241766361492960E-33, 2.000000000000000000 ) ) ;
#221 = AXIS2_PLACEMENT_3D ( 'NONE', #111, #30, #210 ) ;
#222 = APPROVAL_PERSON_ORGANIZATION ( #8, #218, #45 ) ;
#223 = EDGE_CURVE ( 'NONE', #32, #32, #61, .T. ) ;
ENDSEC;
END-ISO-10303-21;
