ISO-10303-21;
HEADER;
FILE_DESCRIPTION (( 'STEP AP203' ),
    '1' );
FILE_NAME ('36946.step',
    '2021-10-07T13:46:56',
    ( '' ),
    ( '' ),
    'SwSTEP 2.0',
    'SolidWorks 2019',
    '' );
FILE_SCHEMA (( 'CONFIG_CONTROL_DESIGN' ));
ENDSEC;

DATA;
#1 = ADVANCED_FACE ( 'NONE', ( #76 ), #126, .F. ) ;
#2 = CARTESIAN_POINT ( 'NONE',  ( 6.982962677686266711E-15, 0.2099999999999997979, 2.000000000000000000 ) ) ;
#3 = ORIENTED_EDGE ( 'NONE', *, *, #155, .T. ) ;
#4 = CIRCLE ( 'NONE', #60, 0.2100000000000000477 ) ;
#5 = CARTESIAN_POINT ( 'NONE',  ( 1.076177454525626591E-14, -3.774722380260637174E-16, 3.082294734194990671 ) ) ;
#6 = ADVANCED_FACE ( 'NONE', ( #165, #45 ), #8, .T. ) ;
#7 = ORIENTED_EDGE ( 'NONE', *, *, #131, .T. ) ;
#8 = CYLINDRICAL_SURFACE ( 'NONE', #134, 0.4999999999999982792 ) ;
#9 = DATE_TIME_ROLE ( 'creation_date' ) ;
#10 = DIRECTION ( 'NONE',  ( 3.491481338843133355E-15, -1.224646799147353207E-16, 1.000000000000000000 ) ) ;
#11 = COORDINATED_UNIVERSAL_TIME_OFFSET ( 1, 0, .AHEAD. ) ;
#12 = EDGE_CURVE ( 'NONE', #50, #50, #51, .T. ) ;
#13 = APPROVAL_DATE_TIME ( #187, #38 ) ;
#14 = PERSON_AND_ORGANIZATION ( #167, #61 ) ;
#15 = COORDINATED_UNIVERSAL_TIME_OFFSET ( 1, 0, .AHEAD. ) ;
#16 = DIRECTION ( 'NONE',  ( -4.275831445896958607E-31, -1.000000000000000000, -1.224646799147353207E-16 ) ) ;
#17 = PRODUCT ( '36946', '36946', '', ( #138 ) ) ;
#18 = CONICAL_SURFACE ( 'NONE', #146, 0.4000000000000000222, 0.7853981633974512766 ) ;
#19 = AXIS2_PLACEMENT_3D ( 'NONE', #137, #98, #173 ) ;
#20 = CC_DESIGN_DATE_AND_TIME_ASSIGNMENT ( #113, #118, ( #82 ) ) ;
#21 = APPROVAL_PERSON_ORGANIZATION ( #63, #38, #130 ) ;
#22 = APPLICATION_CONTEXT ( 'configuration controlled 3d designs of mechanical parts and assemblies' ) ;
#23 = DIRECTION ( 'NONE',  ( 0.0000000000000000000, 1.000000000000000000, 0.0000000000000000000 ) ) ;
#24 = ORIENTED_EDGE ( 'NONE', *, *, #155, .F. ) ;
#25 = CC_DESIGN_PERSON_AND_ORGANIZATION_ASSIGNMENT ( #206, #136, ( #82 ) ) ;
#26 = DIRECTION ( 'NONE',  ( 0.0000000000000000000, -1.000000000000000000, 0.0000000000000000000 ) ) ;
#27 = CLOSED_SHELL ( 'NONE', ( #175, #58, #110 ) ) ;
#28 = ORIENTED_EDGE ( 'NONE', *, *, #48, .F. ) ;
#29 = ORIENTED_EDGE ( 'NONE', *, *, #48, .T. ) ;
#30 = CC_DESIGN_DATE_AND_TIME_ASSIGNMENT ( #84, #9, ( #49 ) ) ;
#31 = APPLICATION_PROTOCOL_DEFINITION ( 'international standard', 'config_control_design', 1994, #22 ) ;
#32 = AXIS2_PLACEMENT_3D ( 'NONE', #221, #122, #133 ) ;
#33 = APPROVAL_ROLE ( '' ) ;
#34 = DIRECTION ( 'NONE',  ( -3.491481338843133355E-15, 1.224646799147353207E-16, -1.000000000000000000 ) ) ;
#35 = CALENDAR_DATE ( 2021, 7, 10 ) ;
#36 = PERSON_AND_ORGANIZATION ( #167, #61 ) ;
#37 = MANIFOLD_SOLID_BREP ( 'Corps-Déplacer/Copier1[2]', #27 ) ;
#38 = APPROVAL ( #157, 'UNSPECIFIED' ) ;
#39 = DIRECTION ( 'NONE',  ( -4.275831445896958607E-31, -1.000000000000000000, -1.224646799147353207E-16 ) ) ;
#40 = LOCAL_TIME ( 15, 46, 56.00000000000000000, #11 ) ;
#41 = CYLINDRICAL_SURFACE ( 'NONE', #154, 0.2099999999999999367 ) ;
#42 = DIRECTION ( 'NONE',  ( 4.275831445896958607E-31, 1.000000000000000000, 1.224646799147353207E-16 ) ) ;
#43 = CARTESIAN_POINT ( 'NONE',  ( 1.047444401652940007E-13, -3.673940397442059178E-15, 30.00000000000000000 ) ) ;
#44 = AXIS2_PLACEMENT_3D ( 'NONE', #109, #180, #26 ) ;
#45 = FACE_OUTER_BOUND ( 'NONE', #193, .T. ) ;
#46 = PERSON_AND_ORGANIZATION_ROLE ( 'creator' ) ;
#47 = CALENDAR_DATE ( 2021, 7, 10 ) ;
#48 = EDGE_CURVE ( 'NONE', #124, #124, #181, .T. ) ;
#49 = PRODUCT_DEFINITION ( 'UNKNOWN', '', #147, #213 ) ;
#50 = VERTEX_POINT ( 'NONE', #195 ) ;
#51 = CIRCLE ( 'NONE', #200, 0.4000000000000000222 ) ;
#52 = EDGE_CURVE ( 'NONE', #160, #160, #4, .T. ) ;
#53 = ADVANCED_FACE ( 'NONE', ( #150, #89 ), #18, .T. ) ;
#54 = APPLICATION_CONTEXT ( 'configuration controlled 3d designs of mechanical parts and assemblies' ) ;
#55 = CC_DESIGN_APPROVAL ( #38, ( #49 ) ) ;
#56 = CARTESIAN_POINT ( 'NONE',  ( 1.043952920314096810E-13, 0.4999999999999963363, 29.89999999999999858 ) ) ;
#57 = CARTESIAN_POINT ( 'NONE',  ( 1.047444401652940007E-13, -3.673940397442059178E-15, 30.00000000000000000 ) ) ;
#58 = ADVANCED_FACE ( 'NONE', ( #161, #145 ), #41, .T. ) ;
#59 = DIRECTION ( 'NONE',  ( -3.491481338843133355E-15, 1.224646799147353207E-16, -1.000000000000000000 ) ) ;
#60 = AXIS2_PLACEMENT_3D ( 'NONE', #93, #178, #215 ) ;
#61 = ORGANIZATION ( 'UNSPECIFIED', 'UNSPECIFIED', '' ) ;
#62 = EDGE_LOOP ( 'NONE', ( #127 ) ) ;
#63 = PERSON_AND_ORGANIZATION ( #167, #61 ) ;
#64 = DIRECTION ( 'NONE',  ( 4.585547486636279803E-31, 1.000000000000000000, 1.290716872006554013E-16 ) ) ;
#65 = SECURITY_CLASSIFICATION_LEVEL ( 'unclassified' ) ;
#66 = PERSON_AND_ORGANIZATION ( #167, #61 ) ;
#67 = ORIENTED_EDGE ( 'NONE', *, *, #119, .T. ) ;
#68 = CARTESIAN_POINT ( 'NONE',  ( 4.405576641019010191E-16, -1.545268271034193137E-17, 0.1261807299957889428 ) ) ;
#69 = EDGE_LOOP ( 'NONE', ( #140 ) ) ;
#70 = ADVANCED_FACE ( 'NONE', ( #90, #162 ), #117, .T. ) ;
#71 = VERTEX_POINT ( 'NONE', #144 ) ;
#72 = EDGE_LOOP ( 'NONE', ( #99 ) ) ;
#73 = EDGE_LOOP ( 'NONE', ( #94 ) ) ;
#74 = DIRECTION ( 'NONE',  ( -3.491481338843133355E-15, 1.224646799147353207E-16, -1.000000000000000000 ) ) ;
#75 = CARTESIAN_POINT ( 'NONE',  ( 1.076177454525626591E-14, 0.4999999999999963363, 3.082294734194990671 ) ) ;
#76 = FACE_OUTER_BOUND ( 'NONE', #128, .T. ) ;
#77 = APPROVAL_ROLE ( '' ) ;
#78 = PLANE ( 'NONE',  #174 ) ;
#79 = APPROVAL_STATUS ( 'not_yet_approved' ) ;
#80 = DIRECTION ( 'NONE',  ( -3.491481338843133355E-15, 1.224646799147353207E-16, -1.000000000000000000 ) ) ;
#81 = APPROVAL_DATE_TIME ( #171, #177 ) ;
#82 = SECURITY_CLASSIFICATION ( '', '', #65 ) ;
#83 = APPROVAL_STATUS ( 'not_yet_approved' ) ;
#84 = DATE_AND_TIME ( #35, #223 ) ;
#85 = ADVANCED_BREP_SHAPE_REPRESENTATION ( '36946', ( #103, #37, #96 ), #218 ) ;
#86 = CC_DESIGN_PERSON_AND_ORGANIZATION_ASSIGNMENT ( #121, #46, ( #49 ) ) ;
#87 = ORIENTED_EDGE ( 'NONE', *, *, #52, .F. ) ;
#88 = LOCAL_TIME ( 15, 46, 56.00000000000000000, #152 ) ;
#89 = FACE_BOUND ( 'NONE', #73, .T. ) ;
#90 = FACE_BOUND ( 'NONE', #159, .T. ) ;
#91 = APPROVAL_PERSON_ORGANIZATION ( #66, #177, #33 ) ;
#92 = PLANE ( 'NONE',  #191 ) ;
#93 = CARTESIAN_POINT ( 'NONE',  ( 6.982962677686266711E-15, -2.449293598294706414E-16, 2.000000000000000000 ) ) ;
#94 = ORIENTED_EDGE ( 'NONE', *, *, #12, .T. ) ;
#95 = PERSON_AND_ORGANIZATION_ROLE ( 'creator' ) ;
#96 = AXIS2_PLACEMENT_3D ( 'NONE', #188, #185, #190 ) ;
#97 = CALENDAR_DATE ( 2021, 7, 10 ) ;
#98 = DIRECTION ( 'NONE',  ( -3.491481338843133355E-15, 1.224646799147353207E-16, -1.000000000000000000 ) ) ;
#99 = ORIENTED_EDGE ( 'NONE', *, *, #52, .T. ) ;
#100 = CC_DESIGN_PERSON_AND_ORGANIZATION_ASSIGNMENT ( #14, #170, ( #147 ) ) ;
#101 = CIRCLE ( 'NONE', #32, 0.2100000000000000477 ) ;
#102 = DATE_AND_TIME ( #156, #88 ) ;
#103 = MANIFOLD_SOLID_BREP ( 'Corps-Déplacer/Copier1[1]', #217 ) ;
#104 = CC_DESIGN_SECURITY_CLASSIFICATION ( #82, ( #147 ) ) ;
#105 = FACE_OUTER_BOUND ( 'NONE', #199, .T. ) ;
#106 = DIRECTION ( 'NONE',  ( 0.0000000000000000000, 1.000000000000000000, 0.0000000000000000000 ) ) ;
#107 = DIRECTION ( 'NONE',  ( -3.491481338843133355E-15, 1.224646799147353207E-16, -1.000000000000000000 ) ) ;
#108 = VERTEX_POINT ( 'NONE', #179 ) ;
#109 = CARTESIAN_POINT ( 'NONE',  ( 1.076177454525626591E-14, -3.774722380260637174E-16, 3.082294734194990671 ) ) ;
#110 = ADVANCED_FACE ( 'NONE', ( #149 ), #92, .T. ) ;
#111 = AXIS2_PLACEMENT_3D ( 'NONE', #169, #80, #64 ) ;
#112 = DIRECTION ( 'NONE',  ( -3.491481338843133355E-15, 1.224646799147353207E-16, -1.000000000000000000 ) ) ;
#113 = DATE_AND_TIME ( #204, #40 ) ;
#114 = CC_DESIGN_PERSON_AND_ORGANIZATION_ASSIGNMENT ( #153, #95, ( #147 ) ) ;
#115 = UNCERTAINTY_MEASURE_WITH_UNIT (LENGTH_MEASURE( 1.000000000000000082E-05 ), #151, 'distance_accuracy_value', 'NONE');
#116 = APPLICATION_PROTOCOL_DEFINITION ( 'international standard', 'config_control_design', 1994, #54 ) ;
#117 = CONICAL_SURFACE ( 'NONE', #44, 0.4999999999999966693, 0.2617993877991428020 ) ;
#118 = DATE_TIME_ROLE ( 'classification_date' ) ;
#119 = EDGE_CURVE ( 'NONE', #71, #71, #101, .T. ) ;
#120 = ADVANCED_FACE ( 'NONE', ( #189 ), #78, .F. ) ;
#121 = PERSON_AND_ORGANIZATION ( #167, #61 ) ;
#122 = DIRECTION ( 'NONE',  ( -3.491481338843133355E-15, 1.224646799147353207E-16, -1.000000000000000000 ) ) ;
#123 = AXIS2_PLACEMENT_3D ( 'NONE', #5, #183, #23 ) ;
#124 = VERTEX_POINT ( 'NONE', #75 ) ;
#125 = CARTESIAN_POINT ( 'NONE',  ( 6.982962677686266711E-15, 1.574747771794947272E-33, 2.000000000000000000 ) ) ;
#126 = PLANE ( 'NONE',  #172 ) ;
#127 = ORIENTED_EDGE ( 'NONE', *, *, #131, .F. ) ;
#128 = EDGE_LOOP ( 'NONE', ( #67 ) ) ;
#129 = EDGE_LOOP ( 'NONE', ( #24 ) ) ;
#130 = APPROVAL_ROLE ( '' ) ;
#131 = EDGE_CURVE ( 'NONE', #210, #210, #182, .T. ) ;
#132 =( NAMED_UNIT ( * ) SI_UNIT ( $, .STERADIAN. ) SOLID_ANGLE_UNIT ( ) );
#133 = DIRECTION ( 'NONE',  ( 0.0000000000000000000, 1.000000000000000000, 0.0000000000000000000 ) ) ;
#134 = AXIS2_PLACEMENT_3D ( 'NONE', #212, #74, #197 ) ;
#135 = LOCAL_TIME ( 15, 46, 56.00000000000000000, #139 ) ;
#136 = PERSON_AND_ORGANIZATION_ROLE ( 'classification_officer' ) ;
#137 = CARTESIAN_POINT ( 'NONE',  ( 1.043952920314096810E-13, -3.661693929450586610E-15, 29.89999999999999858 ) ) ;
#138 = MECHANICAL_CONTEXT ( 'NONE', #54, 'mechanical' ) ;
#139 = COORDINATED_UNIVERSAL_TIME_OFFSET ( 1, 0, .AHEAD. ) ;
#140 = ORIENTED_EDGE ( 'NONE', *, *, #12, .F. ) ;
#141 = PRODUCT_DEFINITION_SHAPE ( 'NONE', 'NONE',  #49 ) ;
#142 = SHAPE_DEFINITION_REPRESENTATION ( #141, #85 ) ;
#143 = DIRECTION ( 'NONE',  ( 3.491481338843133355E-15, -1.224646799147353207E-16, 1.000000000000000000 ) ) ;
#144 = CARTESIAN_POINT ( 'NONE',  ( 6.982962677686266711E-15, 0.2099999999999997979, 2.000000000000000000 ) ) ;
#145 = FACE_OUTER_BOUND ( 'NONE', #72, .T. ) ;
#146 = AXIS2_PLACEMENT_3D ( 'NONE', #57, #59, #202 ) ;
#147 = PRODUCT_DEFINITION_FORMATION_WITH_SPECIFIED_SOURCE ( 'ANY', '', #17, .NOT_KNOWN. ) ;
#148 = DIRECTION ( 'NONE',  ( 3.491481338843133355E-15, -1.224646799147353207E-16, 1.000000000000000000 ) ) ;
#149 = FACE_OUTER_BOUND ( 'NONE', #164, .T. ) ;
#150 = FACE_OUTER_BOUND ( 'NONE', #62, .T. ) ;
#151 =( LENGTH_UNIT ( ) NAMED_UNIT ( * ) SI_UNIT ( .MILLI., .METRE. ) );
#152 = COORDINATED_UNIVERSAL_TIME_OFFSET ( 1, 0, .AHEAD. ) ;
#153 = PERSON_AND_ORGANIZATION ( #167, #61 ) ;
#154 = AXIS2_PLACEMENT_3D ( 'NONE', #198, #107, #42 ) ;
#155 = EDGE_CURVE ( 'NONE', #108, #108, #216, .T. ) ;
#156 = CALENDAR_DATE ( 2021, 7, 10 ) ;
#157 = APPROVAL_STATUS ( 'not_yet_approved' ) ;
#158 = LOCAL_TIME ( 15, 46, 56.00000000000000000, #15 ) ;
#159 = EDGE_LOOP ( 'NONE', ( #208 ) ) ;
#160 = VERTEX_POINT ( 'NONE', #2 ) ;
#161 = FACE_OUTER_BOUND ( 'NONE', #129, .T. ) ;
#162 = FACE_OUTER_BOUND ( 'NONE', #176, .T. ) ;
#163 = AXIS2_PLACEMENT_3D ( 'NONE', #68, #143, #209 ) ;
#164 = EDGE_LOOP ( 'NONE', ( #87 ) ) ;
#165 = FACE_OUTER_BOUND ( 'NONE', #211, .T. ) ;
#166 = PERSON_AND_ORGANIZATION ( #167, #61 ) ;
#167 = PERSON ( 'UNSPECIFIED', 'UNSPECIFIED', 'UNSPECIFIED', ('UNSPECIFIED'), ('UNSPECIFIED'), ('UNSPECIFIED') ) ;
#168 = CC_DESIGN_APPROVAL ( #184, ( #82 ) ) ;
#169 = CARTESIAN_POINT ( 'NONE',  ( 4.405576641019010191E-16, -1.545268271034193137E-17, 0.1261807299957889428 ) ) ;
#170 = PERSON_AND_ORGANIZATION_ROLE ( 'design_supplier' ) ;
#171 = DATE_AND_TIME ( #97, #135 ) ;
#172 = AXIS2_PLACEMENT_3D ( 'NONE', #125, #148, #39 ) ;
#173 = DIRECTION ( 'NONE',  ( 0.0000000000000000000, 1.000000000000000000, 0.0000000000000000000 ) ) ;
#174 = AXIS2_PLACEMENT_3D ( 'NONE', #205, #34, #219 ) ;
#175 = ADVANCED_FACE ( 'NONE', ( #105 ), #192, .T. ) ;
#176 = EDGE_LOOP ( 'NONE', ( #29 ) ) ;
#177 = APPROVAL ( #79, 'UNSPECIFIED' ) ;
#178 = DIRECTION ( 'NONE',  ( -3.491481338843133355E-15, 1.224646799147353207E-16, -1.000000000000000000 ) ) ;
#179 = CARTESIAN_POINT ( 'NONE',  ( 4.405576641019011177E-16, 0.2099999999999997979, 0.1261807299957889705 ) ) ;
#180 = DIRECTION ( 'NONE',  ( 3.491481338843133355E-15, -1.224646799147353207E-16, 1.000000000000000000 ) ) ;
#181 = CIRCLE ( 'NONE', #123, 0.4999999999999966693 ) ;
#182 = CIRCLE ( 'NONE', #19, 0.5000000000000000000 ) ;
#183 = DIRECTION ( 'NONE',  ( -3.491481338843133355E-15, 1.224646799147353207E-16, -1.000000000000000000 ) ) ;
#184 = APPROVAL ( #83, 'UNSPECIFIED' ) ;
#185 = DIRECTION ( 'NONE',  ( 0.0000000000000000000, 0.0000000000000000000, 1.000000000000000000 ) ) ;
#186 = PERSON_AND_ORGANIZATION_ROLE ( 'design_owner' ) ;
#187 = DATE_AND_TIME ( #47, #158 ) ;
#188 = CARTESIAN_POINT ( 'NONE',  ( 0.0000000000000000000, 0.0000000000000000000, 0.0000000000000000000 ) ) ;
#189 = FACE_OUTER_BOUND ( 'NONE', #69, .T. ) ;
#190 = DIRECTION ( 'NONE',  ( 1.000000000000000000, 0.0000000000000000000, 0.0000000000000000000 ) ) ;
#191 = AXIS2_PLACEMENT_3D ( 'NONE', #214, #10, #16 ) ;
#192 = CONICAL_SURFACE ( 'NONE', #163, 0.2099999999999998257, 1.029744258676649649 ) ;
#193 = EDGE_LOOP ( 'NONE', ( #7 ) ) ;
#194 = APPROVAL_DATE_TIME ( #102, #184 ) ;
#195 = CARTESIAN_POINT ( 'NONE',  ( 1.047444401652940007E-13, 0.3999999999999963585, 30.00000000000000000 ) ) ;
#196 = CC_DESIGN_PERSON_AND_ORGANIZATION_ASSIGNMENT ( #36, #186, ( #17 ) ) ;
#197 = DIRECTION ( 'NONE',  ( 4.275831445896958607E-31, 1.000000000000000000, 1.224646799147353207E-16 ) ) ;
#198 = CARTESIAN_POINT ( 'NONE',  ( 0.0000000000000000000, 0.0000000000000000000, 0.0000000000000000000 ) ) ;
#199 = EDGE_LOOP ( 'NONE', ( #3 ) ) ;
#200 = AXIS2_PLACEMENT_3D ( 'NONE', #43, #112, #106 ) ;
#201 = CC_DESIGN_APPROVAL ( #177, ( #147 ) ) ;
#202 = DIRECTION ( 'NONE',  ( 0.0000000000000000000, 1.000000000000000000, 0.0000000000000000000 ) ) ;
#203 = COORDINATED_UNIVERSAL_TIME_OFFSET ( 1, 0, .AHEAD. ) ;
#204 = CALENDAR_DATE ( 2021, 7, 10 ) ;
#205 = CARTESIAN_POINT ( 'NONE',  ( 1.047444401652940007E-13, 2.999519565323660135E-33, 30.00000000000000000 ) ) ;
#206 = PERSON_AND_ORGANIZATION ( #167, #61 ) ;
#207 = APPROVAL_PERSON_ORGANIZATION ( #166, #184, #77 ) ;
#208 = ORIENTED_EDGE ( 'NONE', *, *, #119, .F. ) ;
#209 = DIRECTION ( 'NONE',  ( -4.585547486636279803E-31, -1.000000000000000000, -1.290716872006554013E-16 ) ) ;
#210 = VERTEX_POINT ( 'NONE', #56 ) ;
#211 = EDGE_LOOP ( 'NONE', ( #28 ) ) ;
#212 = CARTESIAN_POINT ( 'NONE',  ( 0.0000000000000000000, 0.0000000000000000000, 0.0000000000000000000 ) ) ;
#213 = DESIGN_CONTEXT ( 'detailed design', #22, 'design' ) ;
#214 = CARTESIAN_POINT ( 'NONE',  ( 6.982962677686266711E-15, 1.574747771794947272E-33, 2.000000000000000000 ) ) ;
#215 = DIRECTION ( 'NONE',  ( 0.0000000000000000000, 1.000000000000000000, 0.0000000000000000000 ) ) ;
#216 = CIRCLE ( 'NONE', #111, 0.2099999999999998257 ) ;
#217 = CLOSED_SHELL ( 'NONE', ( #1, #70, #6, #53, #120 ) ) ;
#218 =( GEOMETRIC_REPRESENTATION_CONTEXT ( 3 ) GLOBAL_UNCERTAINTY_ASSIGNED_CONTEXT ( ( #115 ) ) GLOBAL_UNIT_ASSIGNED_CONTEXT ( ( #151, #220, #132 ) ) REPRESENTATION_CONTEXT ( 'NONE', 'WORKASPACE' ) );
#219 = DIRECTION ( 'NONE',  ( 4.275831445896958607E-31, 1.000000000000000000, 1.224646799147353207E-16 ) ) ;
#220 =( NAMED_UNIT ( * ) PLANE_ANGLE_UNIT ( ) SI_UNIT ( $, .RADIAN. ) );
#221 = CARTESIAN_POINT ( 'NONE',  ( 6.982962677686266711E-15, -2.449293598294706414E-16, 2.000000000000000000 ) ) ;
#222 = PRODUCT_RELATED_PRODUCT_CATEGORY ( 'detail', '', ( #17 ) ) ;
#223 = LOCAL_TIME ( 15, 46, 56.00000000000000000, #203 ) ;
ENDSEC;
END-ISO-10303-21;
