ISO-10303-21;
HEADER;
FILE_DESCRIPTION (( 'STEP AP203' ),
    '1' );
FILE_NAME ('36945.step',
    '2021-10-07T13:46:55',
    ( '' ),
    ( '' ),
    'SwSTEP 2.0',
    'SolidWorks 2019',
    '' );
FILE_SCHEMA (( 'CONFIG_CONTROL_DESIGN' ));
ENDSEC;

DATA;
#1 = EDGE_CURVE ( 'NONE', #158, #158, #126, .T. ) ;
#2 = DIRECTION ( 'NONE',  ( -3.491481338843133355E-15, 1.224646799147353207E-16, -1.000000000000000000 ) ) ;
#3 = EDGE_LOOP ( 'NONE', ( #119 ) ) ;
#4 = CC_DESIGN_SECURITY_CLASSIFICATION ( #160, ( #50 ) ) ;
#5 = AXIS2_PLACEMENT_3D ( 'NONE', #10, #128, #110 ) ;
#6 = CARTESIAN_POINT ( 'NONE',  ( 1.047444401652940007E-13, 0.3999999999999963585, 30.00000000000000000 ) ) ;
#7 = CARTESIAN_POINT ( 'NONE',  ( 1.047444401652940007E-13, -3.673940397442059178E-15, 30.00000000000000000 ) ) ;
#8 = CARTESIAN_POINT ( 'NONE',  ( 0.0000000000000000000, 0.0000000000000000000, 0.0000000000000000000 ) ) ;
#9 = EDGE_CURVE ( 'NONE', #89, #89, #192, .T. ) ;
#10 = CARTESIAN_POINT ( 'NONE',  ( 1.047444401652940007E-13, -3.673940397442059178E-15, 30.00000000000000000 ) ) ;
#11 = FACE_OUTER_BOUND ( 'NONE', #177, .T. ) ;
#12 = CARTESIAN_POINT ( 'NONE',  ( 1.043952920314096810E-13, 0.4999999999999963363, 29.89999999999999858 ) ) ;
#13 = PLANE ( 'NONE',  #165 ) ;
#14 = APPROVAL_STATUS ( 'not_yet_approved' ) ;
#15 = CALENDAR_DATE ( 2021, 7, 10 ) ;
#16 = CONICAL_SURFACE ( 'NONE', #141, 0.1949999999999998401, 1.029744258676649649 ) ;
#17 = DATE_AND_TIME ( #188, #120 ) ;
#18 = PRODUCT_RELATED_PRODUCT_CATEGORY ( 'detail', '', ( #30 ) ) ;
#19 = CONICAL_SURFACE ( 'NONE', #5, 0.4000000000000000222, 0.7853981633974512766 ) ;
#20 = CC_DESIGN_PERSON_AND_ORGANIZATION_ASSIGNMENT ( #40, #31, ( #30 ) ) ;
#21 = DIRECTION ( 'NONE',  ( -3.491481338843133355E-15, 1.224646799147353207E-16, -1.000000000000000000 ) ) ;
#22 = AXIS2_PLACEMENT_3D ( 'NONE', #8, #74, #211 ) ;
#23 = CC_DESIGN_PERSON_AND_ORGANIZATION_ASSIGNMENT ( #68, #187, ( #50 ) ) ;
#24 = DIRECTION ( 'NONE',  ( 3.491481338843133355E-15, -1.224646799147353207E-16, 1.000000000000000000 ) ) ;
#25 = FACE_OUTER_BOUND ( 'NONE', #37, .T. ) ;
#26 = DIRECTION ( 'NONE',  ( 0.0000000000000000000, -1.000000000000000000, 0.0000000000000000000 ) ) ;
#27 = FACE_OUTER_BOUND ( 'NONE', #97, .T. ) ;
#28 = COORDINATED_UNIVERSAL_TIME_OFFSET ( 1, 0, .AHEAD. ) ;
#29 = DATE_AND_TIME ( #113, #214 ) ;
#30 = PRODUCT ( '36945', '36945', '', ( #56 ) ) ;
#31 = PERSON_AND_ORGANIZATION_ROLE ( 'design_owner' ) ;
#32 = CC_DESIGN_DATE_AND_TIME_ASSIGNMENT ( #45, #46, ( #44 ) ) ;
#33 = ORIENTED_EDGE ( 'NONE', *, *, #108, .T. ) ;
#34 = CONICAL_SURFACE ( 'NONE', #193, 0.4999999999999966693, 0.2617993877991427465 ) ;
#35 = EDGE_LOOP ( 'NONE', ( #199 ) ) ;
#36 = ORIENTED_EDGE ( 'NONE', *, *, #9, .T. ) ;
#37 = EDGE_LOOP ( 'NONE', ( #122 ) ) ;
#38 = PRODUCT_DEFINITION_SHAPE ( 'NONE', 'NONE',  #44 ) ;
#39 = DIRECTION ( 'NONE',  ( 0.0000000000000000000, 1.000000000000000000, 0.0000000000000000000 ) ) ;
#40 = PERSON_AND_ORGANIZATION ( #129, #60 ) ;
#41 = FACE_OUTER_BOUND ( 'NONE', #84, .T. ) ;
#42 = ADVANCED_FACE ( 'NONE', ( #25 ), #13, .F. ) ;
#43 = PERSON_AND_ORGANIZATION ( #129, #60 ) ;
#44 = PRODUCT_DEFINITION ( 'UNKNOWN', '', #50, #58 ) ;
#45 = DATE_AND_TIME ( #15, #167 ) ;
#46 = DATE_TIME_ROLE ( 'creation_date' ) ;
#47 = FACE_OUTER_BOUND ( 'NONE', #208, .T. ) ;
#48 = AXIS2_PLACEMENT_3D ( 'NONE', #139, #2, #53 ) ;
#49 = PERSON_AND_ORGANIZATION_ROLE ( 'design_supplier' ) ;
#50 = PRODUCT_DEFINITION_FORMATION_WITH_SPECIFIED_SOURCE ( 'ANY', '', #30, .NOT_KNOWN. ) ;
#51 = EDGE_CURVE ( 'NONE', #164, #164, #212, .T. ) ;
#52 = ADVANCED_FACE ( 'NONE', ( #75 ), #57, .T. ) ;
#53 = DIRECTION ( 'NONE',  ( 4.275831445896958607E-31, 1.000000000000000000, 1.224646799147353207E-16 ) ) ;
#54 = ADVANCED_FACE ( 'NONE', ( #47 ), #16, .T. ) ;
#55 = CLOSED_SHELL ( 'NONE', ( #54, #94, #52 ) ) ;
#56 = MECHANICAL_CONTEXT ( 'NONE', #195, 'mechanical' ) ;
#57 = PLANE ( 'NONE',  #118 ) ;
#58 = DESIGN_CONTEXT ( 'detailed design', #103, 'design' ) ;
#59 = AXIS2_PLACEMENT_3D ( 'NONE', #90, #125, #215 ) ;
#60 = ORGANIZATION ( 'UNSPECIFIED', 'UNSPECIFIED', '' ) ;
#61 =( NAMED_UNIT ( * ) SI_UNIT ( $, .STERADIAN. ) SOLID_ANGLE_UNIT ( ) );
#62 = DIRECTION ( 'NONE',  ( 4.938281908685224268E-31, 1.000000000000000000, 1.390002785237827361E-16 ) ) ;
#63 = DIRECTION ( 'NONE',  ( -3.491481338843133355E-15, 1.224646799147353207E-16, -1.000000000000000000 ) ) ;
#64 = APPROVAL_PERSON_ORGANIZATION ( #169, #178, #65 ) ;
#65 = APPROVAL_ROLE ( '' ) ;
#66 = CARTESIAN_POINT ( 'NONE',  ( 4.090892595231938246E-16, -1.434891965960322088E-17, 0.1171678207103754310 ) ) ;
#67 = APPROVAL_DATE_TIME ( #17, #78 ) ;
#68 = PERSON_AND_ORGANIZATION ( #129, #60 ) ;
#69 = ADVANCED_FACE ( 'NONE', ( #191, #72 ), #154, .T. ) ;
#70 = FACE_OUTER_BOUND ( 'NONE', #197, .T. ) ;
#71 = ORIENTED_EDGE ( 'NONE', *, *, #1, .F. ) ;
#72 = FACE_OUTER_BOUND ( 'NONE', #101, .T. ) ;
#73 = DIRECTION ( 'NONE',  ( 0.0000000000000000000, 1.000000000000000000, 0.0000000000000000000 ) ) ;
#74 = DIRECTION ( 'NONE',  ( 0.0000000000000000000, 0.0000000000000000000, 1.000000000000000000 ) ) ;
#75 = FACE_OUTER_BOUND ( 'NONE', #156, .T. ) ;
#76 = FACE_BOUND ( 'NONE', #35, .T. ) ;
#77 = CARTESIAN_POINT ( 'NONE',  ( 1.043952920314096810E-13, -3.661693929450586610E-15, 29.89999999999999858 ) ) ;
#78 = APPROVAL ( #153, 'UNSPECIFIED' ) ;
#79 = DATE_AND_TIME ( #114, #186 ) ;
#80 = PERSON_AND_ORGANIZATION ( #129, #60 ) ;
#81 = PERSON_AND_ORGANIZATION_ROLE ( 'creator' ) ;
#82 = CIRCLE ( 'NONE', #85, 0.1949999999999998401 ) ;
#83 = ORIENTED_EDGE ( 'NONE', *, *, #1, .T. ) ;
#84 = EDGE_LOOP ( 'NONE', ( #33 ) ) ;
#85 = AXIS2_PLACEMENT_3D ( 'NONE', #201, #106, #62 ) ;
#86 =( GEOMETRIC_REPRESENTATION_CONTEXT ( 3 ) GLOBAL_UNCERTAINTY_ASSIGNED_CONTEXT ( ( #145 ) ) GLOBAL_UNIT_ASSIGNED_CONTEXT ( ( #200, #179, #61 ) ) REPRESENTATION_CONTEXT ( 'NONE', 'WORKASPACE' ) );
#87 = DIRECTION ( 'NONE',  ( 4.275831445896958607E-31, 1.000000000000000000, 1.224646799147353207E-16 ) ) ;
#88 = CARTESIAN_POINT ( 'NONE',  ( 5.237222008264700033E-15, 0.1949999999999998956, 1.500000000000000000 ) ) ;
#89 = VERTEX_POINT ( 'NONE', #6 ) ;
#90 = CARTESIAN_POINT ( 'NONE',  ( 5.237222008264700033E-15, -1.836970198721029934E-16, 1.500000000000000000 ) ) ;
#91 = FACE_BOUND ( 'NONE', #174, .T. ) ;
#92 = CALENDAR_DATE ( 2021, 7, 10 ) ;
#93 = PERSON_AND_ORGANIZATION ( #129, #60 ) ;
#94 = ADVANCED_FACE ( 'NONE', ( #98, #70 ), #175, .T. ) ;
#95 = APPROVAL_STATUS ( 'not_yet_approved' ) ;
#96 = CARTESIAN_POINT ( 'NONE',  ( 5.237222008264700033E-15, 1.462265788095308841E-33, 1.500000000000000000 ) ) ;
#97 = EDGE_LOOP ( 'NONE', ( #140 ) ) ;
#98 = FACE_OUTER_BOUND ( 'NONE', #155, .T. ) ;
#99 = APPROVAL ( #95, 'UNSPECIFIED' ) ;
#100 = AXIS2_PLACEMENT_3D ( 'NONE', #207, #21, #87 ) ;
#101 = EDGE_LOOP ( 'NONE', ( #142 ) ) ;
#102 = CC_DESIGN_PERSON_AND_ORGANIZATION_ASSIGNMENT ( #206, #49, ( #50 ) ) ;
#103 = APPLICATION_CONTEXT ( 'configuration controlled 3d designs of mechanical parts and assemblies' ) ;
#104 = CARTESIAN_POINT ( 'NONE',  ( 5.237222008264700033E-15, -1.836970198721029934E-16, 1.500000000000000000 ) ) ;
#105 = AXIS2_PLACEMENT_3D ( 'NONE', #7, #218, #73 ) ;
#106 = DIRECTION ( 'NONE',  ( -3.491481338843133355E-15, 1.224646799147353207E-16, -1.000000000000000000 ) ) ;
#107 = VERTEX_POINT ( 'NONE', #88 ) ;
#108 = EDGE_CURVE ( 'NONE', #107, #107, #176, .T. ) ;
#109 = CC_DESIGN_PERSON_AND_ORGANIZATION_ASSIGNMENT ( #93, #81, ( #44 ) ) ;
#110 = DIRECTION ( 'NONE',  ( 0.0000000000000000000, 1.000000000000000000, 0.0000000000000000000 ) ) ;
#111 = DIRECTION ( 'NONE',  ( -3.491481338843133355E-15, 1.224646799147353207E-16, -1.000000000000000000 ) ) ;
#112 = APPROVAL_ROLE ( '' ) ;
#113 = CALENDAR_DATE ( 2021, 7, 10 ) ;
#114 = CALENDAR_DATE ( 2021, 7, 10 ) ;
#115 = AXIS2_PLACEMENT_3D ( 'NONE', #166, #111, #161 ) ;
#116 = SECURITY_CLASSIFICATION_LEVEL ( 'unclassified' ) ;
#117 = DIRECTION ( 'NONE',  ( -4.275831445896958607E-31, -1.000000000000000000, -1.224646799147353207E-16 ) ) ;
#118 = AXIS2_PLACEMENT_3D ( 'NONE', #96, #136, #117 ) ;
#119 = ORIENTED_EDGE ( 'NONE', *, *, #51, .F. ) ;
#120 = LOCAL_TIME ( 15, 46, 55.00000000000000000, #151 ) ;
#121 = ORIENTED_EDGE ( 'NONE', *, *, #172, .F. ) ;
#122 = ORIENTED_EDGE ( 'NONE', *, *, #9, .F. ) ;
#123 = CARTESIAN_POINT ( 'NONE',  ( 9.211489662088322466E-15, -3.230955641823130563E-16, 2.638275496308525536 ) ) ;
#124 = ADVANCED_FACE ( 'NONE', ( #11, #91 ), #19, .T. ) ;
#125 = DIRECTION ( 'NONE',  ( -3.491481338843133355E-15, 1.224646799147353207E-16, -1.000000000000000000 ) ) ;
#126 = CIRCLE ( 'NONE', #59, 0.1950000000000000899 ) ;
#127 = AXIS2_PLACEMENT_3D ( 'NONE', #77, #183, #39 ) ;
#128 = DIRECTION ( 'NONE',  ( -3.491481338843133355E-15, 1.224646799147353207E-16, -1.000000000000000000 ) ) ;
#129 = PERSON ( 'UNSPECIFIED', 'UNSPECIFIED', 'UNSPECIFIED', ('UNSPECIFIED'), ('UNSPECIFIED'), ('UNSPECIFIED') ) ;
#130 = CARTESIAN_POINT ( 'NONE',  ( 1.047444401652940007E-13, 2.999519565323660135E-33, 30.00000000000000000 ) ) ;
#131 = CARTESIAN_POINT ( 'NONE',  ( 5.237222008264700033E-15, 1.462265788095308841E-33, 1.500000000000000000 ) ) ;
#132 = CARTESIAN_POINT ( 'NONE',  ( 9.211489662088322466E-15, 0.4999999999999963363, 2.638275496308525536 ) ) ;
#133 = COORDINATED_UNIVERSAL_TIME_OFFSET ( 1, 0, .AHEAD. ) ;
#134 = DATE_TIME_ROLE ( 'classification_date' ) ;
#135 = COORDINATED_UNIVERSAL_TIME_OFFSET ( 1, 0, .AHEAD. ) ;
#136 = DIRECTION ( 'NONE',  ( 3.491481338843133355E-15, -1.224646799147353207E-16, 1.000000000000000000 ) ) ;
#137 = CIRCLE ( 'NONE', #127, 0.5000000000000000000 ) ;
#138 = DIRECTION ( 'NONE',  ( -4.938281908685224268E-31, -1.000000000000000000, -1.390002785237827361E-16 ) ) ;
#139 = CARTESIAN_POINT ( 'NONE',  ( 0.0000000000000000000, 0.0000000000000000000, 0.0000000000000000000 ) ) ;
#140 = ORIENTED_EDGE ( 'NONE', *, *, #51, .T. ) ;
#141 = AXIS2_PLACEMENT_3D ( 'NONE', #66, #205, #138 ) ;
#142 = ORIENTED_EDGE ( 'NONE', *, *, #172, .T. ) ;
#143 = MANIFOLD_SOLID_BREP ( 'Corps-Déplacer/Copier1[2]', #55 ) ;
#144 = ORIENTED_EDGE ( 'NONE', *, *, #149, .F. ) ;
#145 = UNCERTAINTY_MEASURE_WITH_UNIT (LENGTH_MEASURE( 1.000000000000000082E-05 ), #200, 'distance_accuracy_value', 'NONE');
#146 = AXIS2_PLACEMENT_3D ( 'NONE', #131, #168, #180 ) ;
#147 = MANIFOLD_SOLID_BREP ( 'Corps-Déplacer/Copier1[1]', #198 ) ;
#148 = CC_DESIGN_APPROVAL ( #99, ( #44 ) ) ;
#149 = EDGE_CURVE ( 'NONE', #150, #150, #82, .T. ) ;
#150 = VERTEX_POINT ( 'NONE', #216 ) ;
#151 = COORDINATED_UNIVERSAL_TIME_OFFSET ( 1, 0, .AHEAD. ) ;
#152 = APPROVAL_DATE_TIME ( #29, #178 ) ;
#153 = APPROVAL_STATUS ( 'not_yet_approved' ) ;
#154 = CYLINDRICAL_SURFACE ( 'NONE', #48, 0.4999999999999982792 ) ;
#155 = EDGE_LOOP ( 'NONE', ( #144 ) ) ;
#156 = EDGE_LOOP ( 'NONE', ( #71 ) ) ;
#157 = CC_DESIGN_APPROVAL ( #78, ( #50 ) ) ;
#158 = VERTEX_POINT ( 'NONE', #217 ) ;
#159 = ADVANCED_BREP_SHAPE_REPRESENTATION ( '36945', ( #147, #143, #22 ), #86 ) ;
#160 = SECURITY_CLASSIFICATION ( '', '', #116 ) ;
#161 = DIRECTION ( 'NONE',  ( 0.0000000000000000000, 1.000000000000000000, 0.0000000000000000000 ) ) ;
#162 = CC_DESIGN_PERSON_AND_ORGANIZATION_ASSIGNMENT ( #43, #219, ( #160 ) ) ;
#163 = VERTEX_POINT ( 'NONE', #12 ) ;
#164 = VERTEX_POINT ( 'NONE', #132 ) ;
#165 = AXIS2_PLACEMENT_3D ( 'NONE', #130, #184, #202 ) ;
#166 = CARTESIAN_POINT ( 'NONE',  ( 9.211489662088322466E-15, -3.230955641823130563E-16, 2.638275496308525536 ) ) ;
#167 = LOCAL_TIME ( 15, 46, 55.00000000000000000, #135 ) ;
#168 = DIRECTION ( 'NONE',  ( 3.491481338843133355E-15, -1.224646799147353207E-16, 1.000000000000000000 ) ) ;
#169 = PERSON_AND_ORGANIZATION ( #129, #60 ) ;
#170 = APPROVAL_DATE_TIME ( #79, #99 ) ;
#171 = PERSON_AND_ORGANIZATION ( #129, #60 ) ;
#172 = EDGE_CURVE ( 'NONE', #163, #163, #137, .T. ) ;
#173 = ADVANCED_FACE ( 'NONE', ( #41 ), #185, .F. ) ;
#174 = EDGE_LOOP ( 'NONE', ( #36 ) ) ;
#175 = CYLINDRICAL_SURFACE ( 'NONE', #100, 0.1949999999999999789 ) ;
#176 = CIRCLE ( 'NONE', #203, 0.1950000000000000899 ) ;
#177 = EDGE_LOOP ( 'NONE', ( #121 ) ) ;
#178 = APPROVAL ( #14, 'UNSPECIFIED' ) ;
#179 =( NAMED_UNIT ( * ) PLANE_ANGLE_UNIT ( ) SI_UNIT ( $, .RADIAN. ) );
#180 = DIRECTION ( 'NONE',  ( -4.275831445896958607E-31, -1.000000000000000000, -1.224646799147353207E-16 ) ) ;
#181 = APPROVAL_PERSON_ORGANIZATION ( #171, #99, #112 ) ;
#182 = DIRECTION ( 'NONE',  ( 0.0000000000000000000, 1.000000000000000000, 0.0000000000000000000 ) ) ;
#183 = DIRECTION ( 'NONE',  ( -3.491481338843133355E-15, 1.224646799147353207E-16, -1.000000000000000000 ) ) ;
#184 = DIRECTION ( 'NONE',  ( -3.491481338843133355E-15, 1.224646799147353207E-16, -1.000000000000000000 ) ) ;
#185 = PLANE ( 'NONE',  #146 ) ;
#186 = LOCAL_TIME ( 15, 46, 55.00000000000000000, #190 ) ;
#187 = PERSON_AND_ORGANIZATION_ROLE ( 'creator' ) ;
#188 = CALENDAR_DATE ( 2021, 7, 10 ) ;
#189 = SHAPE_DEFINITION_REPRESENTATION ( #38, #159 ) ;
#190 = COORDINATED_UNIVERSAL_TIME_OFFSET ( 1, 0, .AHEAD. ) ;
#191 = FACE_OUTER_BOUND ( 'NONE', #3, .T. ) ;
#192 = CIRCLE ( 'NONE', #105, 0.4000000000000000222 ) ;
#193 = AXIS2_PLACEMENT_3D ( 'NONE', #123, #24, #26 ) ;
#194 = ADVANCED_FACE ( 'NONE', ( #76, #27 ), #34, .T. ) ;
#195 = APPLICATION_CONTEXT ( 'configuration controlled 3d designs of mechanical parts and assemblies' ) ;
#196 = ORIENTED_EDGE ( 'NONE', *, *, #149, .T. ) ;
#197 = EDGE_LOOP ( 'NONE', ( #83 ) ) ;
#198 = CLOSED_SHELL ( 'NONE', ( #173, #194, #69, #124, #42 ) ) ;
#199 = ORIENTED_EDGE ( 'NONE', *, *, #108, .F. ) ;
#200 =( LENGTH_UNIT ( ) NAMED_UNIT ( * ) SI_UNIT ( .MILLI., .METRE. ) );
#201 = CARTESIAN_POINT ( 'NONE',  ( 4.090892595231938246E-16, -1.434891965960322088E-17, 0.1171678207103754310 ) ) ;
#202 = DIRECTION ( 'NONE',  ( 4.275831445896958607E-31, 1.000000000000000000, 1.224646799147353207E-16 ) ) ;
#203 = AXIS2_PLACEMENT_3D ( 'NONE', #104, #63, #182 ) ;
#204 = DATE_AND_TIME ( #92, #209 ) ;
#205 = DIRECTION ( 'NONE',  ( 3.491481338843133355E-15, -1.224646799147353207E-16, 1.000000000000000000 ) ) ;
#206 = PERSON_AND_ORGANIZATION ( #129, #60 ) ;
#207 = CARTESIAN_POINT ( 'NONE',  ( 0.0000000000000000000, 0.0000000000000000000, 0.0000000000000000000 ) ) ;
#208 = EDGE_LOOP ( 'NONE', ( #196 ) ) ;
#209 = LOCAL_TIME ( 15, 46, 55.00000000000000000, #28 ) ;
#210 = APPLICATION_PROTOCOL_DEFINITION ( 'international standard', 'config_control_design', 1994, #195 ) ;
#211 = DIRECTION ( 'NONE',  ( 1.000000000000000000, 0.0000000000000000000, 0.0000000000000000000 ) ) ;
#212 = CIRCLE ( 'NONE', #115, 0.4999999999999966693 ) ;
#213 = APPROVAL_PERSON_ORGANIZATION ( #80, #78, #223 ) ;
#214 = LOCAL_TIME ( 15, 46, 55.00000000000000000, #133 ) ;
#215 = DIRECTION ( 'NONE',  ( 0.0000000000000000000, 1.000000000000000000, 0.0000000000000000000 ) ) ;
#216 = CARTESIAN_POINT ( 'NONE',  ( 4.090892595231939232E-16, 0.1949999999999998124, 0.1171678207103754588 ) ) ;
#217 = CARTESIAN_POINT ( 'NONE',  ( 5.237222008264700033E-15, 0.1949999999999998956, 1.500000000000000000 ) ) ;
#218 = DIRECTION ( 'NONE',  ( -3.491481338843133355E-15, 1.224646799147353207E-16, -1.000000000000000000 ) ) ;
#219 = PERSON_AND_ORGANIZATION_ROLE ( 'classification_officer' ) ;
#220 = CC_DESIGN_APPROVAL ( #178, ( #160 ) ) ;
#221 = CC_DESIGN_DATE_AND_TIME_ASSIGNMENT ( #204, #134, ( #160 ) ) ;
#222 = APPLICATION_PROTOCOL_DEFINITION ( 'international standard', 'config_control_design', 1994, #103 ) ;
#223 = APPROVAL_ROLE ( '' ) ;
ENDSEC;
END-ISO-10303-21;
