ISO-10303-21;
HEADER;
FILE_DESCRIPTION (( 'STEP AP203' ),
    '1' );
FILE_NAME ('36944.step',
    '2021-10-07T13:46:54',
    ( '' ),
    ( '' ),
    'SwSTEP 2.0',
    'SolidWorks 2019',
    '' );
FILE_SCHEMA (( 'CONFIG_CONTROL_DESIGN' ));
ENDSEC;

DATA;
#1 = ADVANCED_FACE ( 'NONE', ( #123, #105 ), #199, .T. ) ;
#2 = DIRECTION ( 'NONE',  ( 5.068236695755888618E-31, 1.000000000000000000, 1.426581805901980868E-16 ) ) ;
#3 = EDGE_LOOP ( 'NONE', ( #160 ) ) ;
#4 = LOCAL_TIME ( 15, 46, 54.00000000000000000, #144 ) ;
#5 = EDGE_LOOP ( 'NONE', ( #103 ) ) ;
#6 = ORIENTED_EDGE ( 'NONE', *, *, #53, .T. ) ;
#7 = VERTEX_POINT ( 'NONE', #110 ) ;
#8 = PERSON ( 'UNSPECIFIED', 'UNSPECIFIED', 'UNSPECIFIED', ('UNSPECIFIED'), ('UNSPECIFIED'), ('UNSPECIFIED') ) ;
#9 = ADVANCED_FACE ( 'NONE', ( #76 ), #161, .F. ) ;
#10 = CARTESIAN_POINT ( 'NONE',  ( 1.043952920314096810E-13, 0.4999999999999963363, 29.89999999999999858 ) ) ;
#11 = CARTESIAN_POINT ( 'NONE',  ( 0.0000000000000000000, 0.0000000000000000000, 0.0000000000000000000 ) ) ;
#12 = CARTESIAN_POINT ( 'NONE',  ( 1.047444401652940007E-13, 0.3999999999999963585, 30.00000000000000000 ) ) ;
#13 = COORDINATED_UNIVERSAL_TIME_OFFSET ( 1, 0, .AHEAD. ) ;
#14 = COORDINATED_UNIVERSAL_TIME_OFFSET ( 1, 0, .AHEAD. ) ;
#15 = COORDINATED_UNIVERSAL_TIME_OFFSET ( 1, 0, .AHEAD. ) ;
#16 = ORIENTED_EDGE ( 'NONE', *, *, #56, .F. ) ;
#17 = EDGE_CURVE ( 'NONE', #196, #196, #57, .T. ) ;
#18 = DIRECTION ( 'NONE',  ( 0.0000000000000000000, -1.000000000000000000, 0.0000000000000000000 ) ) ;
#19 = CIRCLE ( 'NONE', #149, 0.1900000000000001410 ) ;
#20 =( GEOMETRIC_REPRESENTATION_CONTEXT ( 3 ) GLOBAL_UNCERTAINTY_ASSIGNED_CONTEXT ( ( #216 ) ) GLOBAL_UNIT_ASSIGNED_CONTEXT ( ( #80, #132, #63 ) ) REPRESENTATION_CONTEXT ( 'NONE', 'WORKASPACE' ) );
#21 = ADVANCED_FACE ( 'NONE', ( #50, #138 ), #51, .T. ) ;
#22 = PLANE ( 'NONE',  #190 ) ;
#23 = CIRCLE ( 'NONE', #38, 0.5000000000000000000 ) ;
#24 = FACE_OUTER_BOUND ( 'NONE', #171, .T. ) ;
#25 = APPLICATION_CONTEXT ( 'configuration controlled 3d designs of mechanical parts and assemblies' ) ;
#26 = PLANE ( 'NONE',  #166 ) ;
#27 = DIRECTION ( 'NONE',  ( 3.491481338843133355E-15, -1.224646799147353207E-16, 1.000000000000000000 ) ) ;
#28 = CC_DESIGN_PERSON_AND_ORGANIZATION_ASSIGNMENT ( #83, #69, ( #195 ) ) ;
#29 = CARTESIAN_POINT ( 'NONE',  ( 5.237222008264700033E-15, 0.1899999999999999467, 1.500000000000000000 ) ) ;
#30 = PERSON_AND_ORGANIZATION_ROLE ( 'classification_officer' ) ;
#31 = SHAPE_DEFINITION_REPRESENTATION ( #59, #201 ) ;
#32 = DATE_TIME_ROLE ( 'classification_date' ) ;
#33 = SECURITY_CLASSIFICATION ( '', '', #114 ) ;
#34 = APPLICATION_CONTEXT ( 'configuration controlled 3d designs of mechanical parts and assemblies' ) ;
#35 = EDGE_LOOP ( 'NONE', ( #159 ) ) ;
#36 = CC_DESIGN_PERSON_AND_ORGANIZATION_ASSIGNMENT ( #96, #113, ( #130 ) ) ;
#37 = ORIENTED_EDGE ( 'NONE', *, *, #99, .F. ) ;
#38 = AXIS2_PLACEMENT_3D ( 'NONE', #183, #111, #109 ) ;
#39 = EDGE_LOOP ( 'NONE', ( #172 ) ) ;
#40 = FACE_OUTER_BOUND ( 'NONE', #39, .T. ) ;
#41 = CALENDAR_DATE ( 2021, 7, 10 ) ;
#42 = LOCAL_TIME ( 15, 46, 54.00000000000000000, #14 ) ;
#43 = CARTESIAN_POINT ( 'NONE',  ( 1.047444401652940007E-13, -3.673940397442059178E-15, 30.00000000000000000 ) ) ;
#44 = FACE_OUTER_BOUND ( 'NONE', #5, .T. ) ;
#45 = DATE_TIME_ROLE ( 'creation_date' ) ;
#46 = EDGE_CURVE ( 'NONE', #79, #79, #189, .T. ) ;
#47 = PRODUCT_RELATED_PRODUCT_CATEGORY ( 'detail', '', ( #130 ) ) ;
#48 = DATE_AND_TIME ( #218, #197 ) ;
#49 = PERSON_AND_ORGANIZATION_ROLE ( 'creator' ) ;
#50 = FACE_BOUND ( 'NONE', #211, .T. ) ;
#51 = CONICAL_SURFACE ( 'NONE', #214, 0.4999999999999966693, 0.2617993877991426910 ) ;
#52 = APPROVAL_DATE_TIME ( #48, #194 ) ;
#53 = EDGE_CURVE ( 'NONE', #89, #89, #19, .T. ) ;
#54 = CARTESIAN_POINT ( 'NONE',  ( 1.047444401652940007E-13, -3.673940397442059178E-15, 30.00000000000000000 ) ) ;
#55 = ORIENTED_EDGE ( 'NONE', *, *, #17, .F. ) ;
#56 = EDGE_CURVE ( 'NONE', #167, #167, #165, .T. ) ;
#57 = CIRCLE ( 'NONE', #108, 0.1900000000000001410 ) ;
#58 = EDGE_LOOP ( 'NONE', ( #16 ) ) ;
#59 = PRODUCT_DEFINITION_SHAPE ( 'NONE', 'NONE',  #195 ) ;
#60 = DIRECTION ( 'NONE',  ( -3.491481338843133355E-15, 1.224646799147353207E-16, -1.000000000000000000 ) ) ;
#61 = APPROVAL ( #177, 'UNSPECIFIED' ) ;
#62 = AXIS2_PLACEMENT_3D ( 'NONE', #77, #60, #152 ) ;
#63 =( NAMED_UNIT ( * ) SI_UNIT ( $, .STERADIAN. ) SOLID_ANGLE_UNIT ( ) );
#64 = CYLINDRICAL_SURFACE ( 'NONE', #139, 0.4999999999999982792 ) ;
#65 = PERSON_AND_ORGANIZATION ( #8, #70 ) ;
#66 = DIRECTION ( 'NONE',  ( -3.491481338843133355E-15, 1.224646799147353207E-16, -1.000000000000000000 ) ) ;
#67 = DATE_AND_TIME ( #95, #208 ) ;
#68 = MANIFOLD_SOLID_BREP ( 'Corps-Déplacer/Copier1[1]', #120 ) ;
#69 = PERSON_AND_ORGANIZATION_ROLE ( 'creator' ) ;
#70 = ORGANIZATION ( 'UNSPECIFIED', 'UNSPECIFIED', '' ) ;
#71 = CARTESIAN_POINT ( 'NONE',  ( 5.237222008264700033E-15, -1.836970198721029934E-16, 1.500000000000000000 ) ) ;
#72 = CC_DESIGN_APPROVAL ( #124, ( #195 ) ) ;
#73 = DIRECTION ( 'NONE',  ( -3.491481338843133355E-15, 1.224646799147353207E-16, -1.000000000000000000 ) ) ;
#74 = ORIENTED_EDGE ( 'NONE', *, *, #56, .T. ) ;
#75 = DIRECTION ( 'NONE',  ( -4.275831445896958607E-31, -1.000000000000000000, -1.224646799147353207E-16 ) ) ;
#76 = FACE_OUTER_BOUND ( 'NONE', #58, .T. ) ;
#77 = CARTESIAN_POINT ( 'NONE',  ( 1.047444401652940007E-13, 2.999519565323660135E-33, 30.00000000000000000 ) ) ;
#78 = FACE_OUTER_BOUND ( 'NONE', #175, .T. ) ;
#79 = VERTEX_POINT ( 'NONE', #87 ) ;
#80 =( LENGTH_UNIT ( ) NAMED_UNIT ( * ) SI_UNIT ( .MILLI., .METRE. ) );
#81 = DIRECTION ( 'NONE',  ( 1.000000000000000000, 0.0000000000000000000, 0.0000000000000000000 ) ) ;
#82 = DATE_AND_TIME ( #115, #42 ) ;
#83 = PERSON_AND_ORGANIZATION ( #8, #70 ) ;
#84 = CC_DESIGN_DATE_AND_TIME_ASSIGNMENT ( #136, #45, ( #195 ) ) ;
#85 = EDGE_LOOP ( 'NONE', ( #74 ) ) ;
#86 = EDGE_LOOP ( 'NONE', ( #125 ) ) ;
#87 = CARTESIAN_POINT ( 'NONE',  ( 3.985997913302915414E-16, 0.1899999999999998079, 0.1141635176152376308 ) ) ;
#88 = AXIS2_PLACEMENT_3D ( 'NONE', #150, #27, #180 ) ;
#89 = VERTEX_POINT ( 'NONE', #29 ) ;
#90 = CARTESIAN_POINT ( 'NONE',  ( 0.0000000000000000000, 0.0000000000000000000, 0.0000000000000000000 ) ) ;
#91 = DIRECTION ( 'NONE',  ( -3.491481338843133355E-15, 1.224646799147353207E-16, -1.000000000000000000 ) ) ;
#92 = DIRECTION ( 'NONE',  ( -3.491481338843133355E-15, 1.224646799147353207E-16, -1.000000000000000000 ) ) ;
#93 = LOCAL_TIME ( 15, 46, 54.00000000000000000, #13 ) ;
#94 = DIRECTION ( 'NONE',  ( 0.0000000000000000000, 1.000000000000000000, 0.0000000000000000000 ) ) ;
#95 = CALENDAR_DATE ( 2021, 7, 10 ) ;
#96 = PERSON_AND_ORGANIZATION ( #8, #70 ) ;
#97 = PRODUCT_DEFINITION_FORMATION_WITH_SPECIFIED_SOURCE ( 'ANY', '', #130, .NOT_KNOWN. ) ;
#98 = PERSON_AND_ORGANIZATION ( #8, #70 ) ;
#99 = EDGE_CURVE ( 'NONE', #7, #7, #174, .T. ) ;
#100 = APPROVAL_DATE_TIME ( #122, #61 ) ;
#101 = CC_DESIGN_APPROVAL ( #61, ( #33 ) ) ;
#102 = DIRECTION ( 'NONE',  ( -3.491481338843133355E-15, 1.224646799147353207E-16, -1.000000000000000000 ) ) ;
#103 = ORIENTED_EDGE ( 'NONE', *, *, #176, .T. ) ;
#104 = AXIS2_PLACEMENT_3D ( 'NONE', #182, #92, #112 ) ;
#105 = FACE_OUTER_BOUND ( 'NONE', #142, .T. ) ;
#106 = ADVANCED_FACE ( 'NONE', ( #198, #213 ), #117, .T. ) ;
#107 = CARTESIAN_POINT ( 'NONE',  ( 5.237222008264700033E-15, 1.424771793528762983E-33, 1.500000000000000000 ) ) ;
#108 = AXIS2_PLACEMENT_3D ( 'NONE', #119, #66, #205 ) ;
#109 = DIRECTION ( 'NONE',  ( 0.0000000000000000000, 1.000000000000000000, 0.0000000000000000000 ) ) ;
#110 = CARTESIAN_POINT ( 'NONE',  ( 9.276641590839529159E-15, 0.4999999999999963363, 2.656935750346370195 ) ) ;
#111 = DIRECTION ( 'NONE',  ( -3.491481338843133355E-15, 1.224646799147353207E-16, -1.000000000000000000 ) ) ;
#112 = DIRECTION ( 'NONE',  ( 4.275831445896958607E-31, 1.000000000000000000, 1.224646799147353207E-16 ) ) ;
#113 = PERSON_AND_ORGANIZATION_ROLE ( 'design_owner' ) ;
#114 = SECURITY_CLASSIFICATION_LEVEL ( 'unclassified' ) ;
#115 = CALENDAR_DATE ( 2021, 7, 10 ) ;
#116 = AXIS2_PLACEMENT_3D ( 'NONE', #157, #73, #2 ) ;
#117 = CONICAL_SURFACE ( 'NONE', #170, 0.4000000000000000222, 0.7853981633974512766 ) ;
#118 = PERSON_AND_ORGANIZATION ( #8, #70 ) ;
#119 = CARTESIAN_POINT ( 'NONE',  ( 5.237222008264700033E-15, -1.836970198721029934E-16, 1.500000000000000000 ) ) ;
#120 = CLOSED_SHELL ( 'NONE', ( #143, #21, #162, #106, #9 ) ) ;
#121 = AXIS2_PLACEMENT_3D ( 'NONE', #90, #185, #81 ) ;
#122 = DATE_AND_TIME ( #41, #4 ) ;
#123 = FACE_OUTER_BOUND ( 'NONE', #158, .T. ) ;
#124 = APPROVAL ( #154, 'UNSPECIFIED' ) ;
#125 = ORIENTED_EDGE ( 'NONE', *, *, #99, .T. ) ;
#126 = CC_DESIGN_PERSON_AND_ORGANIZATION_ASSIGNMENT ( #186, #30, ( #33 ) ) ;
#127 = VERTEX_POINT ( 'NONE', #10 ) ;
#128 = CLOSED_SHELL ( 'NONE', ( #220, #1, #204 ) ) ;
#129 = DIRECTION ( 'NONE',  ( 0.0000000000000000000, 1.000000000000000000, 0.0000000000000000000 ) ) ;
#130 = PRODUCT ( '36944', '36944', '', ( #134 ) ) ;
#131 = CARTESIAN_POINT ( 'NONE',  ( 5.237222008264700033E-15, 1.424771793528762983E-33, 1.500000000000000000 ) ) ;
#132 =( NAMED_UNIT ( * ) PLANE_ANGLE_UNIT ( ) SI_UNIT ( $, .RADIAN. ) );
#133 = APPROVAL_PERSON_ORGANIZATION ( #168, #194, #169 ) ;
#134 = MECHANICAL_CONTEXT ( 'NONE', #34, 'mechanical' ) ;
#135 = CC_DESIGN_PERSON_AND_ORGANIZATION_ASSIGNMENT ( #118, #49, ( #97 ) ) ;
#136 = DATE_AND_TIME ( #137, #93 ) ;
#137 = CALENDAR_DATE ( 2021, 7, 10 ) ;
#138 = FACE_OUTER_BOUND ( 'NONE', #86, .T. ) ;
#139 = AXIS2_PLACEMENT_3D ( 'NONE', #11, #181, #163 ) ;
#140 = CARTESIAN_POINT ( 'NONE',  ( 9.276641590839529159E-15, -3.253807862201853771E-16, 2.656935750346370195 ) ) ;
#141 = DIRECTION ( 'NONE',  ( -3.491481338843133355E-15, 1.224646799147353207E-16, -1.000000000000000000 ) ) ;
#142 = EDGE_LOOP ( 'NONE', ( #6 ) ) ;
#143 = ADVANCED_FACE ( 'NONE', ( #164 ), #22, .F. ) ;
#144 = COORDINATED_UNIVERSAL_TIME_OFFSET ( 1, 0, .AHEAD. ) ;
#145 = MANIFOLD_SOLID_BREP ( 'Corps-Déplacer/Copier1[2]', #128 ) ;
#146 = DIRECTION ( 'NONE',  ( 3.491481338843133355E-15, -1.224646799147353207E-16, 1.000000000000000000 ) ) ;
#147 = APPLICATION_PROTOCOL_DEFINITION ( 'international standard', 'config_control_design', 1994, #34 ) ;
#148 = CARTESIAN_POINT ( 'NONE',  ( 9.276641590839529159E-15, -3.253807862201853771E-16, 2.656935750346370195 ) ) ;
#149 = AXIS2_PLACEMENT_3D ( 'NONE', #71, #141, #209 ) ;
#150 = CARTESIAN_POINT ( 'NONE',  ( 3.985997913302914428E-16, -1.398099864269032047E-17, 0.1141635176152376030 ) ) ;
#151 = APPROVAL_ROLE ( '' ) ;
#152 = DIRECTION ( 'NONE',  ( 4.275831445896958607E-31, 1.000000000000000000, 1.224646799147353207E-16 ) ) ;
#153 = APPROVAL_DATE_TIME ( #67, #124 ) ;
#154 = APPROVAL_STATUS ( 'not_yet_approved' ) ;
#155 = CC_DESIGN_PERSON_AND_ORGANIZATION_ASSIGNMENT ( #65, #221, ( #97 ) ) ;
#156 = DESIGN_CONTEXT ( 'detailed design', #25, 'design' ) ;
#157 = CARTESIAN_POINT ( 'NONE',  ( 3.985997913302914428E-16, -1.398099864269032047E-17, 0.1141635176152376030 ) ) ;
#158 = EDGE_LOOP ( 'NONE', ( #192 ) ) ;
#159 = ORIENTED_EDGE ( 'NONE', *, *, #17, .T. ) ;
#160 = ORIENTED_EDGE ( 'NONE', *, *, #176, .F. ) ;
#161 = PLANE ( 'NONE',  #62 ) ;
#162 = ADVANCED_FACE ( 'NONE', ( #24, #44 ), #64, .T. ) ;
#163 = DIRECTION ( 'NONE',  ( 4.275831445896958607E-31, 1.000000000000000000, 1.224646799147353207E-16 ) ) ;
#164 = FACE_OUTER_BOUND ( 'NONE', #35, .T. ) ;
#165 = CIRCLE ( 'NONE', #193, 0.4000000000000000222 ) ;
#166 = AXIS2_PLACEMENT_3D ( 'NONE', #107, #146, #75 ) ;
#167 = VERTEX_POINT ( 'NONE', #12 ) ;
#168 = PERSON_AND_ORGANIZATION ( #8, #70 ) ;
#169 = APPROVAL_ROLE ( '' ) ;
#170 = AXIS2_PLACEMENT_3D ( 'NONE', #43, #91, #129 ) ;
#171 = EDGE_LOOP ( 'NONE', ( #37 ) ) ;
#172 = ORIENTED_EDGE ( 'NONE', *, *, #46, .T. ) ;
#173 = DIRECTION ( 'NONE',  ( 0.0000000000000000000, 1.000000000000000000, 0.0000000000000000000 ) ) ;
#174 = CIRCLE ( 'NONE', #184, 0.4999999999999966693 ) ;
#175 = EDGE_LOOP ( 'NONE', ( #212 ) ) ;
#176 = EDGE_CURVE ( 'NONE', #127, #127, #23, .T. ) ;
#177 = APPROVAL_STATUS ( 'not_yet_approved' ) ;
#178 = DIRECTION ( 'NONE',  ( -3.491481338843133355E-15, 1.224646799147353207E-16, -1.000000000000000000 ) ) ;
#179 = DIRECTION ( 'NONE',  ( -4.275831445896958607E-31, -1.000000000000000000, -1.224646799147353207E-16 ) ) ;
#180 = DIRECTION ( 'NONE',  ( -5.068236695755888618E-31, -1.000000000000000000, -1.426581805901980868E-16 ) ) ;
#181 = DIRECTION ( 'NONE',  ( -3.491481338843133355E-15, 1.224646799147353207E-16, -1.000000000000000000 ) ) ;
#182 = CARTESIAN_POINT ( 'NONE',  ( 0.0000000000000000000, 0.0000000000000000000, 0.0000000000000000000 ) ) ;
#183 = CARTESIAN_POINT ( 'NONE',  ( 1.043952920314096810E-13, -3.661693929450586610E-15, 29.89999999999999858 ) ) ;
#184 = AXIS2_PLACEMENT_3D ( 'NONE', #148, #178, #94 ) ;
#185 = DIRECTION ( 'NONE',  ( 0.0000000000000000000, 0.0000000000000000000, 1.000000000000000000 ) ) ;
#186 = PERSON_AND_ORGANIZATION ( #8, #70 ) ;
#187 = PERSON_AND_ORGANIZATION ( #8, #70 ) ;
#188 = DIRECTION ( 'NONE',  ( 3.491481338843133355E-15, -1.224646799147353207E-16, 1.000000000000000000 ) ) ;
#189 = CIRCLE ( 'NONE', #116, 0.1899999999999998357 ) ;
#190 = AXIS2_PLACEMENT_3D ( 'NONE', #131, #200, #179 ) ;
#191 = APPROVAL_ROLE ( '' ) ;
#192 = ORIENTED_EDGE ( 'NONE', *, *, #46, .F. ) ;
#193 = AXIS2_PLACEMENT_3D ( 'NONE', #54, #102, #173 ) ;
#194 = APPROVAL ( #207, 'UNSPECIFIED' ) ;
#195 = PRODUCT_DEFINITION ( 'UNKNOWN', '', #97, #156 ) ;
#196 = VERTEX_POINT ( 'NONE', #217 ) ;
#197 = LOCAL_TIME ( 15, 46, 54.00000000000000000, #203 ) ;
#198 = FACE_OUTER_BOUND ( 'NONE', #3, .T. ) ;
#199 = CYLINDRICAL_SURFACE ( 'NONE', #104, 0.1900000000000000022 ) ;
#200 = DIRECTION ( 'NONE',  ( 3.491481338843133355E-15, -1.224646799147353207E-16, 1.000000000000000000 ) ) ;
#201 = ADVANCED_BREP_SHAPE_REPRESENTATION ( '36944', ( #68, #145, #121 ), #20 ) ;
#202 = CC_DESIGN_APPROVAL ( #194, ( #97 ) ) ;
#203 = COORDINATED_UNIVERSAL_TIME_OFFSET ( 1, 0, .AHEAD. ) ;
#204 = ADVANCED_FACE ( 'NONE', ( #78 ), #26, .T. ) ;
#205 = DIRECTION ( 'NONE',  ( 0.0000000000000000000, 1.000000000000000000, 0.0000000000000000000 ) ) ;
#206 = CC_DESIGN_DATE_AND_TIME_ASSIGNMENT ( #82, #32, ( #33 ) ) ;
#207 = APPROVAL_STATUS ( 'not_yet_approved' ) ;
#208 = LOCAL_TIME ( 15, 46, 54.00000000000000000, #15 ) ;
#209 = DIRECTION ( 'NONE',  ( 0.0000000000000000000, 1.000000000000000000, 0.0000000000000000000 ) ) ;
#210 = CC_DESIGN_SECURITY_CLASSIFICATION ( #33, ( #97 ) ) ;
#211 = EDGE_LOOP ( 'NONE', ( #55 ) ) ;
#212 = ORIENTED_EDGE ( 'NONE', *, *, #53, .F. ) ;
#213 = FACE_BOUND ( 'NONE', #85, .T. ) ;
#214 = AXIS2_PLACEMENT_3D ( 'NONE', #140, #188, #18 ) ;
#215 = APPROVAL_PERSON_ORGANIZATION ( #187, #124, #151 ) ;
#216 = UNCERTAINTY_MEASURE_WITH_UNIT (LENGTH_MEASURE( 1.000000000000000082E-05 ), #80, 'distance_accuracy_value', 'NONE');
#217 = CARTESIAN_POINT ( 'NONE',  ( 5.237222008264700033E-15, 0.1899999999999999467, 1.500000000000000000 ) ) ;
#218 = CALENDAR_DATE ( 2021, 7, 10 ) ;
#219 = APPROVAL_PERSON_ORGANIZATION ( #98, #61, #191 ) ;
#220 = ADVANCED_FACE ( 'NONE', ( #40 ), #223, .T. ) ;
#221 = PERSON_AND_ORGANIZATION_ROLE ( 'design_supplier' ) ;
#222 = APPLICATION_PROTOCOL_DEFINITION ( 'international standard', 'config_control_design', 1994, #25 ) ;
#223 = CONICAL_SURFACE ( 'NONE', #88, 0.1899999999999998357, 1.029744258676649649 ) ;
ENDSEC;
END-ISO-10303-21;
