ISO-10303-21;
HEADER;
FILE_DESCRIPTION (( 'STEP AP203' ),
    '1' );
FILE_NAME ('36943.step',
    '2021-10-07T13:46:54',
    ( '' ),
    ( '' ),
    'SwSTEP 2.0',
    'SolidWorks 2019',
    '' );
FILE_SCHEMA (( 'CONFIG_CONTROL_DESIGN' ));
ENDSEC;

DATA;
#1 = EDGE_CURVE ( 'NONE', #13, #13, #21, .T. ) ;
#2 = CARTESIAN_POINT ( 'NONE',  ( 1.043952920314096810E-13, -3.661693929450586610E-15, 29.89999999999999858 ) ) ;
#3 = CIRCLE ( 'NONE', #157, 0.1849999999999998312 ) ;
#4 = ORGANIZATION ( 'UNSPECIFIED', 'UNSPECIFIED', '' ) ;
#5 = ORIENTED_EDGE ( 'NONE', *, *, #63, .F. ) ;
#6 = EDGE_CURVE ( 'NONE', #118, #118, #3, .T. ) ;
#7 = ORIENTED_EDGE ( 'NONE', *, *, #136, .F. ) ;
#8 = EDGE_LOOP ( 'NONE', ( #46 ) ) ;
#9 =( GEOMETRIC_REPRESENTATION_CONTEXT ( 3 ) GLOBAL_UNCERTAINTY_ASSIGNED_CONTEXT ( ( #212 ) ) GLOBAL_UNIT_ASSIGNED_CONTEXT ( ( #34, #159, #154 ) ) REPRESENTATION_CONTEXT ( 'NONE', 'WORKASPACE' ) );
#10 = PLANE ( 'NONE',  #220 ) ;
#11 = DIRECTION ( 'NONE',  ( 0.0000000000000000000, 1.000000000000000000, 0.0000000000000000000 ) ) ;
#12 = ADVANCED_FACE ( 'NONE', ( #217, #141 ), #67, .T. ) ;
#13 = VERTEX_POINT ( 'NONE', #137 ) ;
#14 = CONICAL_SURFACE ( 'NONE', #162, 0.4000000000000000222, 0.7853981633974512766 ) ;
#15 = APPLICATION_PROTOCOL_DEFINITION ( 'international standard', 'config_control_design', 1994, #18 ) ;
#16 = FACE_BOUND ( 'NONE', #8, .T. ) ;
#17 = DIRECTION ( 'NONE',  ( 0.0000000000000000000, -1.000000000000000000, 0.0000000000000000000 ) ) ;
#18 = APPLICATION_CONTEXT ( 'configuration controlled 3d designs of mechanical parts and assemblies' ) ;
#19 = APPLICATION_PROTOCOL_DEFINITION ( 'international standard', 'config_control_design', 1994, #91 ) ;
#20 = COORDINATED_UNIVERSAL_TIME_OFFSET ( 1, 0, .AHEAD. ) ;
#21 = CIRCLE ( 'NONE', #133, 0.1850000000000000810 ) ;
#22 = DATE_AND_TIME ( #57, #122 ) ;
#23 = CC_DESIGN_DATE_AND_TIME_ASSIGNMENT ( #178, #164, ( #38 ) ) ;
#24 = CC_DESIGN_SECURITY_CLASSIFICATION ( #38, ( #108 ) ) ;
#25 = EDGE_LOOP ( 'NONE', ( #117 ) ) ;
#26 = ORIENTED_EDGE ( 'NONE', *, *, #79, .T. ) ;
#27 = APPROVAL ( #177, 'UNSPECIFIED' ) ;
#28 = DIRECTION ( 'NONE',  ( -3.491481338843133355E-15, 1.224646799147353207E-16, -1.000000000000000000 ) ) ;
#29 = AXIS2_PLACEMENT_3D ( 'NONE', #187, #101, #17 ) ;
#30 = EDGE_LOOP ( 'NONE', ( #47 ) ) ;
#31 = APPROVAL ( #131, 'UNSPECIFIED' ) ;
#32 = PLANE ( 'NONE',  #78 ) ;
#33 = AXIS2_PLACEMENT_3D ( 'NONE', #201, #99, #172 ) ;
#34 =( LENGTH_UNIT ( ) NAMED_UNIT ( * ) SI_UNIT ( .MILLI., .METRE. ) );
#35 = FACE_OUTER_BOUND ( 'NONE', #97, .T. ) ;
#36 = DIRECTION ( 'NONE',  ( 5.205216065911453080E-31, 1.000000000000000000, 1.465138070926358702E-16 ) ) ;
#37 = DIRECTION ( 'NONE',  ( -4.275831445896958607E-31, -1.000000000000000000, -1.224646799147353207E-16 ) ) ;
#38 = SECURITY_CLASSIFICATION ( '', '', #144 ) ;
#39 = PERSON_AND_ORGANIZATION_ROLE ( 'design_owner' ) ;
#40 = PERSON_AND_ORGANIZATION ( #116, #4 ) ;
#41 = COORDINATED_UNIVERSAL_TIME_OFFSET ( 1, 0, .AHEAD. ) ;
#42 = SHAPE_DEFINITION_REPRESENTATION ( #142, #151 ) ;
#43 = CC_DESIGN_APPROVAL ( #27, ( #108 ) ) ;
#44 = CC_DESIGN_PERSON_AND_ORGANIZATION_ASSIGNMENT ( #52, #39, ( #105 ) ) ;
#45 = LOCAL_TIME ( 15, 46, 54.00000000000000000, #20 ) ;
#46 = ORIENTED_EDGE ( 'NONE', *, *, #63, .T. ) ;
#47 = ORIENTED_EDGE ( 'NONE', *, *, #6, .T. ) ;
#48 = EDGE_LOOP ( 'NONE', ( #197 ) ) ;
#49 = CARTESIAN_POINT ( 'NONE',  ( 1.047444401652940007E-13, 2.999519565323660135E-33, 30.00000000000000000 ) ) ;
#50 = DESIGN_CONTEXT ( 'detailed design', #91, 'design' ) ;
#51 = DIRECTION ( 'NONE',  ( 0.0000000000000000000, 1.000000000000000000, 0.0000000000000000000 ) ) ;
#52 = PERSON_AND_ORGANIZATION ( #116, #4 ) ;
#53 = ADVANCED_FACE ( 'NONE', ( #174 ), #170, .F. ) ;
#54 = PERSON_AND_ORGANIZATION_ROLE ( 'creator' ) ;
#55 = ADVANCED_FACE ( 'NONE', ( #206, #132 ), #109, .T. ) ;
#56 = DATE_AND_TIME ( #128, #216 ) ;
#57 = CALENDAR_DATE ( 2021, 7, 10 ) ;
#58 = DIRECTION ( 'NONE',  ( 4.275831445896958607E-31, 1.000000000000000000, 1.224646799147353207E-16 ) ) ;
#59 = CIRCLE ( 'NONE', #181, 0.4000000000000000222 ) ;
#60 = PERSON_AND_ORGANIZATION ( #116, #4 ) ;
#61 = CC_DESIGN_APPROVAL ( #31, ( #106 ) ) ;
#62 = ADVANCED_FACE ( 'NONE', ( #194 ), #195, .T. ) ;
#63 = EDGE_CURVE ( 'NONE', #156, #156, #59, .T. ) ;
#64 = AXIS2_PLACEMENT_3D ( 'NONE', #73, #173, #143 ) ;
#65 = CARTESIAN_POINT ( 'NONE',  ( 1.047444401652940007E-13, -3.673940397442059178E-15, 30.00000000000000000 ) ) ;
#66 = EDGE_CURVE ( 'NONE', #84, #84, #189, .T. ) ;
#67 = CONICAL_SURFACE ( 'NONE', #29, 0.4999999999999966693, 0.2617993877991426910 ) ;
#68 = MANIFOLD_SOLID_BREP ( 'Corps-Déplacer/Copier1[1]', #114 ) ;
#69 = ORIENTED_EDGE ( 'NONE', *, *, #66, .F. ) ;
#70 = FACE_OUTER_BOUND ( 'NONE', #167, .T. ) ;
#71 = DIRECTION ( 'NONE',  ( 3.491481338843133355E-15, -1.224646799147353207E-16, 1.000000000000000000 ) ) ;
#72 = CARTESIAN_POINT ( 'NONE',  ( 1.047444401652940007E-13, 0.3999999999999963585, 30.00000000000000000 ) ) ;
#73 = CARTESIAN_POINT ( 'NONE',  ( 0.0000000000000000000, 0.0000000000000000000, 0.0000000000000000000 ) ) ;
#74 = PERSON_AND_ORGANIZATION_ROLE ( 'design_supplier' ) ;
#75 = DIRECTION ( 'NONE',  ( -4.275831445896958607E-31, -1.000000000000000000, -1.224646799147353207E-16 ) ) ;
#76 = DATE_AND_TIME ( #93, #45 ) ;
#77 = PERSON_AND_ORGANIZATION ( #116, #4 ) ;
#78 = AXIS2_PLACEMENT_3D ( 'NONE', #184, #102, #37 ) ;
#79 = EDGE_CURVE ( 'NONE', #188, #188, #209, .T. ) ;
#80 = DIRECTION ( 'NONE',  ( -5.205216065911453080E-31, -1.000000000000000000, -1.465138070926358702E-16 ) ) ;
#81 = ORIENTED_EDGE ( 'NONE', *, *, #136, .T. ) ;
#82 = DIRECTION ( 'NONE',  ( 3.491481338843133355E-15, -1.224646799147353207E-16, 1.000000000000000000 ) ) ;
#83 = ORIENTED_EDGE ( 'NONE', *, *, #66, .T. ) ;
#84 = VERTEX_POINT ( 'NONE', #185 ) ;
#85 = CARTESIAN_POINT ( 'NONE',  ( 3.881103231373890118E-16, -1.361307762577741698E-17, 0.1111592145200997611 ) ) ;
#86 = CARTESIAN_POINT ( 'NONE',  ( 5.237222008264700033E-15, 1.387277798962215927E-33, 1.500000000000000000 ) ) ;
#87 = CARTESIAN_POINT ( 'NONE',  ( 1.047444401652940007E-13, -3.673940397442059178E-15, 30.00000000000000000 ) ) ;
#88 = DIRECTION ( 'NONE',  ( -3.491481338843133355E-15, 1.224646799147353207E-16, -1.000000000000000000 ) ) ;
#89 = DIRECTION ( 'NONE',  ( 4.275831445896958607E-31, 1.000000000000000000, 1.224646799147353207E-16 ) ) ;
#90 = PERSON_AND_ORGANIZATION_ROLE ( 'creator' ) ;
#91 = APPLICATION_CONTEXT ( 'configuration controlled 3d designs of mechanical parts and assemblies' ) ;
#92 = AXIS2_PLACEMENT_3D ( 'NONE', #169, #202, #51 ) ;
#93 = CALENDAR_DATE ( 2021, 7, 10 ) ;
#94 = CALENDAR_DATE ( 2021, 7, 10 ) ;
#95 = EDGE_LOOP ( 'NONE', ( #5 ) ) ;
#96 = EDGE_LOOP ( 'NONE', ( #81 ) ) ;
#97 = EDGE_LOOP ( 'NONE', ( #69 ) ) ;
#98 = AXIS2_PLACEMENT_3D ( 'NONE', #2, #150, #210 ) ;
#99 = DIRECTION ( 'NONE',  ( -3.491481338843133355E-15, 1.224646799147353207E-16, -1.000000000000000000 ) ) ;
#100 = CARTESIAN_POINT ( 'NONE',  ( 9.341793519590737429E-15, 0.4999999999999963363, 2.675596004384215298 ) ) ;
#101 = DIRECTION ( 'NONE',  ( 3.491481338843133355E-15, -1.224646799147353207E-16, 1.000000000000000000 ) ) ;
#102 = DIRECTION ( 'NONE',  ( 3.491481338843133355E-15, -1.224646799147353207E-16, 1.000000000000000000 ) ) ;
#103 = APPROVAL_ROLE ( '' ) ;
#104 = APPROVAL_ROLE ( '' ) ;
#105 = PRODUCT ( '36943', '36943', '', ( #155 ) ) ;
#106 = PRODUCT_DEFINITION ( 'UNKNOWN', '', #108, #50 ) ;
#107 = PERSON_AND_ORGANIZATION ( #116, #4 ) ;
#108 = PRODUCT_DEFINITION_FORMATION_WITH_SPECIFIED_SOURCE ( 'ANY', '', #105, .NOT_KNOWN. ) ;
#109 = CYLINDRICAL_SURFACE ( 'NONE', #198, 0.4999999999999982792 ) ;
#110 = ORIENTED_EDGE ( 'NONE', *, *, #6, .F. ) ;
#111 = DIRECTION ( 'NONE',  ( 0.0000000000000000000, 1.000000000000000000, 0.0000000000000000000 ) ) ;
#112 = EDGE_LOOP ( 'NONE', ( #83 ) ) ;
#113 = CC_DESIGN_PERSON_AND_ORGANIZATION_ASSIGNMENT ( #160, #90, ( #106 ) ) ;
#114 = CLOSED_SHELL ( 'NONE', ( #53, #12, #55, #158, #179 ) ) ;
#115 = LOCAL_TIME ( 15, 46, 54.00000000000000000, #223 ) ;
#116 = PERSON ( 'UNSPECIFIED', 'UNSPECIFIED', 'UNSPECIFIED', ('UNSPECIFIED'), ('UNSPECIFIED'), ('UNSPECIFIED') ) ;
#117 = ORIENTED_EDGE ( 'NONE', *, *, #1, .T. ) ;
#118 = VERTEX_POINT ( 'NONE', #120 ) ;
#119 = CC_DESIGN_DATE_AND_TIME_ASSIGNMENT ( #163, #146, ( #106 ) ) ;
#120 = CARTESIAN_POINT ( 'NONE',  ( 3.881103231373891104E-16, 0.1849999999999998035, 0.1111592145200997889 ) ) ;
#121 = AXIS2_PLACEMENT_3D ( 'NONE', #86, #71, #75 ) ;
#122 = LOCAL_TIME ( 15, 46, 54.00000000000000000, #191 ) ;
#123 = DIRECTION ( 'NONE',  ( 0.0000000000000000000, 1.000000000000000000, 0.0000000000000000000 ) ) ;
#124 = ADVANCED_FACE ( 'NONE', ( #70, #135 ), #203, .T. ) ;
#125 = ADVANCED_FACE ( 'NONE', ( #200 ), #32, .T. ) ;
#126 = CARTESIAN_POINT ( 'NONE',  ( 5.237222008264700033E-15, 0.1849999999999998868, 1.500000000000000000 ) ) ;
#127 = APPROVAL_DATE_TIME ( #56, #31 ) ;
#128 = CALENDAR_DATE ( 2021, 7, 10 ) ;
#129 = APPROVAL_STATUS ( 'not_yet_approved' ) ;
#130 = AXIS2_PLACEMENT_3D ( 'NONE', #147, #82, #80 ) ;
#131 = APPROVAL_STATUS ( 'not_yet_approved' ) ;
#132 = FACE_OUTER_BOUND ( 'NONE', #112, .T. ) ;
#133 = AXIS2_PLACEMENT_3D ( 'NONE', #213, #134, #11 ) ;
#134 = DIRECTION ( 'NONE',  ( -3.491481338843133355E-15, 1.224646799147353207E-16, -1.000000000000000000 ) ) ;
#135 = FACE_OUTER_BOUND ( 'NONE', #96, .T. ) ;
#136 = EDGE_CURVE ( 'NONE', #215, #215, #199, .T. ) ;
#137 = CARTESIAN_POINT ( 'NONE',  ( 5.237222008264700033E-15, 0.1849999999999998868, 1.500000000000000000 ) ) ;
#138 = DIRECTION ( 'NONE',  ( -3.491481338843133355E-15, 1.224646799147353207E-16, -1.000000000000000000 ) ) ;
#139 = CLOSED_SHELL ( 'NONE', ( #62, #124, #125 ) ) ;
#140 = APPROVAL_PERSON_ORGANIZATION ( #204, #31, #145 ) ;
#141 = FACE_OUTER_BOUND ( 'NONE', #214, .T. ) ;
#142 = PRODUCT_DEFINITION_SHAPE ( 'NONE', 'NONE',  #106 ) ;
#143 = DIRECTION ( 'NONE',  ( 1.000000000000000000, 0.0000000000000000000, 0.0000000000000000000 ) ) ;
#144 = SECURITY_CLASSIFICATION_LEVEL ( 'unclassified' ) ;
#145 = APPROVAL_ROLE ( '' ) ;
#146 = DATE_TIME_ROLE ( 'creation_date' ) ;
#147 = CARTESIAN_POINT ( 'NONE',  ( 3.881103231373890118E-16, -1.361307762577741698E-17, 0.1111592145200997611 ) ) ;
#148 = APPROVAL_PERSON_ORGANIZATION ( #207, #152, #104 ) ;
#149 = DIRECTION ( 'NONE',  ( -3.491481338843133355E-15, 1.224646799147353207E-16, -1.000000000000000000 ) ) ;
#150 = DIRECTION ( 'NONE',  ( -3.491481338843133355E-15, 1.224646799147353207E-16, -1.000000000000000000 ) ) ;
#151 = ADVANCED_BREP_SHAPE_REPRESENTATION ( '36943', ( #68, #208, #64 ), #9 ) ;
#152 = APPROVAL ( #129, 'UNSPECIFIED' ) ;
#153 = CC_DESIGN_APPROVAL ( #152, ( #38 ) ) ;
#154 =( NAMED_UNIT ( * ) SI_UNIT ( $, .STERADIAN. ) SOLID_ANGLE_UNIT ( ) );
#155 = MECHANICAL_CONTEXT ( 'NONE', #18, 'mechanical' ) ;
#156 = VERTEX_POINT ( 'NONE', #72 ) ;
#157 = AXIS2_PLACEMENT_3D ( 'NONE', #85, #138, #36 ) ;
#158 = ADVANCED_FACE ( 'NONE', ( #35, #16 ), #14, .T. ) ;
#159 =( NAMED_UNIT ( * ) PLANE_ANGLE_UNIT ( ) SI_UNIT ( $, .RADIAN. ) );
#160 = PERSON_AND_ORGANIZATION ( #116, #4 ) ;
#161 = CARTESIAN_POINT ( 'NONE',  ( 0.0000000000000000000, 0.0000000000000000000, 0.0000000000000000000 ) ) ;
#162 = AXIS2_PLACEMENT_3D ( 'NONE', #87, #218, #123 ) ;
#163 = DATE_AND_TIME ( #94, #115 ) ;
#164 = DATE_TIME_ROLE ( 'classification_date' ) ;
#165 = AXIS2_PLACEMENT_3D ( 'NONE', #180, #28, #186 ) ;
#166 = DIRECTION ( 'NONE',  ( -3.491481338843133355E-15, 1.224646799147353207E-16, -1.000000000000000000 ) ) ;
#167 = EDGE_LOOP ( 'NONE', ( #110 ) ) ;
#168 = EDGE_LOOP ( 'NONE', ( #182 ) ) ;
#169 = CARTESIAN_POINT ( 'NONE',  ( 5.237222008264700033E-15, -1.836970198721029934E-16, 1.500000000000000000 ) ) ;
#170 = PLANE ( 'NONE',  #121 ) ;
#171 = CC_DESIGN_PERSON_AND_ORGANIZATION_ASSIGNMENT ( #40, #74, ( #108 ) ) ;
#172 = DIRECTION ( 'NONE',  ( 4.275831445896958607E-31, 1.000000000000000000, 1.224646799147353207E-16 ) ) ;
#173 = DIRECTION ( 'NONE',  ( 0.0000000000000000000, 0.0000000000000000000, 1.000000000000000000 ) ) ;
#174 = FACE_OUTER_BOUND ( 'NONE', #25, .T. ) ;
#175 = FACE_OUTER_BOUND ( 'NONE', #95, .T. ) ;
#176 = COORDINATED_UNIVERSAL_TIME_OFFSET ( 1, 0, .AHEAD. ) ;
#177 = APPROVAL_STATUS ( 'not_yet_approved' ) ;
#178 = DATE_AND_TIME ( #222, #196 ) ;
#179 = ADVANCED_FACE ( 'NONE', ( #175 ), #10, .F. ) ;
#180 = CARTESIAN_POINT ( 'NONE',  ( 9.341793519590737429E-15, -3.276660082580576979E-16, 2.675596004384215298 ) ) ;
#181 = AXIS2_PLACEMENT_3D ( 'NONE', #65, #166, #111 ) ;
#182 = ORIENTED_EDGE ( 'NONE', *, *, #1, .F. ) ;
#183 = CC_DESIGN_PERSON_AND_ORGANIZATION_ASSIGNMENT ( #107, #192, ( #38 ) ) ;
#184 = CARTESIAN_POINT ( 'NONE',  ( 5.237222008264700033E-15, 1.387277798962215927E-33, 1.500000000000000000 ) ) ;
#185 = CARTESIAN_POINT ( 'NONE',  ( 1.043952920314096810E-13, 0.4999999999999963363, 29.89999999999999858 ) ) ;
#186 = DIRECTION ( 'NONE',  ( 0.0000000000000000000, 1.000000000000000000, 0.0000000000000000000 ) ) ;
#187 = CARTESIAN_POINT ( 'NONE',  ( 9.341793519590737429E-15, -3.276660082580576979E-16, 2.675596004384215298 ) ) ;
#188 = VERTEX_POINT ( 'NONE', #100 ) ;
#189 = CIRCLE ( 'NONE', #98, 0.5000000000000000000 ) ;
#190 = APPROVAL_PERSON_ORGANIZATION ( #60, #27, #103 ) ;
#191 = COORDINATED_UNIVERSAL_TIME_OFFSET ( 1, 0, .AHEAD. ) ;
#192 = PERSON_AND_ORGANIZATION_ROLE ( 'classification_officer' ) ;
#193 = APPROVAL_DATE_TIME ( #76, #152 ) ;
#194 = FACE_OUTER_BOUND ( 'NONE', #30, .T. ) ;
#195 = CONICAL_SURFACE ( 'NONE', #130, 0.1849999999999998312, 1.029744258676649649 ) ;
#196 = LOCAL_TIME ( 15, 46, 54.00000000000000000, #41 ) ;
#197 = ORIENTED_EDGE ( 'NONE', *, *, #79, .F. ) ;
#198 = AXIS2_PLACEMENT_3D ( 'NONE', #161, #149, #58 ) ;
#199 = CIRCLE ( 'NONE', #92, 0.1850000000000000810 ) ;
#200 = FACE_OUTER_BOUND ( 'NONE', #211, .T. ) ;
#201 = CARTESIAN_POINT ( 'NONE',  ( 0.0000000000000000000, 0.0000000000000000000, 0.0000000000000000000 ) ) ;
#202 = DIRECTION ( 'NONE',  ( -3.491481338843133355E-15, 1.224646799147353207E-16, -1.000000000000000000 ) ) ;
#203 = CYLINDRICAL_SURFACE ( 'NONE', #33, 0.1849999999999999423 ) ;
#204 = PERSON_AND_ORGANIZATION ( #116, #4 ) ;
#205 = PRODUCT_RELATED_PRODUCT_CATEGORY ( 'detail', '', ( #105 ) ) ;
#206 = FACE_OUTER_BOUND ( 'NONE', #48, .T. ) ;
#207 = PERSON_AND_ORGANIZATION ( #116, #4 ) ;
#208 = MANIFOLD_SOLID_BREP ( 'Corps-Déplacer/Copier1[2]', #139 ) ;
#209 = CIRCLE ( 'NONE', #165, 0.4999999999999966693 ) ;
#210 = DIRECTION ( 'NONE',  ( 0.0000000000000000000, 1.000000000000000000, 0.0000000000000000000 ) ) ;
#211 = EDGE_LOOP ( 'NONE', ( #7 ) ) ;
#212 = UNCERTAINTY_MEASURE_WITH_UNIT (LENGTH_MEASURE( 1.000000000000000082E-05 ), #34, 'distance_accuracy_value', 'NONE');
#213 = CARTESIAN_POINT ( 'NONE',  ( 5.237222008264700033E-15, -1.836970198721029934E-16, 1.500000000000000000 ) ) ;
#214 = EDGE_LOOP ( 'NONE', ( #26 ) ) ;
#215 = VERTEX_POINT ( 'NONE', #126 ) ;
#216 = LOCAL_TIME ( 15, 46, 54.00000000000000000, #176 ) ;
#217 = FACE_BOUND ( 'NONE', #168, .T. ) ;
#218 = DIRECTION ( 'NONE',  ( -3.491481338843133355E-15, 1.224646799147353207E-16, -1.000000000000000000 ) ) ;
#219 = APPROVAL_DATE_TIME ( #22, #27 ) ;
#220 = AXIS2_PLACEMENT_3D ( 'NONE', #49, #88, #89 ) ;
#221 = CC_DESIGN_PERSON_AND_ORGANIZATION_ASSIGNMENT ( #77, #54, ( #108 ) ) ;
#222 = CALENDAR_DATE ( 2021, 7, 10 ) ;
#223 = COORDINATED_UNIVERSAL_TIME_OFFSET ( 1, 0, .AHEAD. ) ;
ENDSEC;
END-ISO-10303-21;
