ISO-10303-21;
HEADER;
FILE_DESCRIPTION (( 'STEP AP203' ),
    '1' );
FILE_NAME ('36942.step',
    '2021-10-07T13:46:53',
    ( '' ),
    ( '' ),
    'SwSTEP 2.0',
    'SolidWorks 2019',
    '' );
FILE_SCHEMA (( 'CONFIG_CONTROL_DESIGN' ));
ENDSEC;

DATA;
#1 = CARTESIAN_POINT ( 'NONE',  ( 0.0000000000000000000, 0.0000000000000000000, 0.0000000000000000000 ) ) ;
#2 = AXIS2_PLACEMENT_3D ( 'NONE', #162, #133, #213 ) ;
#3 = APPROVAL_DATE_TIME ( #26, #176 ) ;
#4 = ORIENTED_EDGE ( 'NONE', *, *, #199, .F. ) ;
#5 = CARTESIAN_POINT ( 'NONE',  ( 5.237222008264700033E-15, 0.1799999999999999378, 1.500000000000000000 ) ) ;
#6 = EDGE_LOOP ( 'NONE', ( #85 ) ) ;
#7 = CONICAL_SURFACE ( 'NONE', #86, 0.1799999999999997990, 1.029744258676649649 ) ;
#8 = ADVANCED_BREP_SHAPE_REPRESENTATION ( '36942', ( #212, #138, #99 ), #164 ) ;
#9 = CC_DESIGN_PERSON_AND_ORGANIZATION_ASSIGNMENT ( #84, #146, ( #76 ) ) ;
#10 = PRODUCT_RELATED_PRODUCT_CATEGORY ( 'detail', '', ( #41 ) ) ;
#11 = LOCAL_TIME ( 15, 46, 53.00000000000000000, #55 ) ;
#12 = PERSON_AND_ORGANIZATION ( #65, #123 ) ;
#13 = CALENDAR_DATE ( 2021, 7, 10 ) ;
#14 = CARTESIAN_POINT ( 'NONE',  ( 0.0000000000000000000, 0.0000000000000000000, 0.0000000000000000000 ) ) ;
#15 = ADVANCED_FACE ( 'NONE', ( #163 ), #61, .T. ) ;
#16 = ADVANCED_FACE ( 'NONE', ( #72, #39 ), #179, .T. ) ;
#17 = DIRECTION ( 'NONE',  ( -3.491481338843133355E-15, 1.224646799147353207E-16, -1.000000000000000000 ) ) ;
#18 = CIRCLE ( 'NONE', #218, 0.1800000000000001321 ) ;
#19 = DIRECTION ( 'NONE',  ( -5.349805401075661375E-31, -1.000000000000000000, -1.505836350674313467E-16 ) ) ;
#20 = APPROVAL_STATUS ( 'not_yet_approved' ) ;
#21 = ORIENTED_EDGE ( 'NONE', *, *, #221, .T. ) ;
#22 = PERSON_AND_ORGANIZATION_ROLE ( 'design_owner' ) ;
#23 = EDGE_LOOP ( 'NONE', ( #178 ) ) ;
#24 = APPROVAL_PERSON_ORGANIZATION ( #46, #176, #100 ) ;
#25 = ADVANCED_FACE ( 'NONE', ( #170, #44 ), #149, .T. ) ;
#26 = DATE_AND_TIME ( #132, #153 ) ;
#27 = ORIENTED_EDGE ( 'NONE', *, *, #166, .F. ) ;
#28 = UNCERTAINTY_MEASURE_WITH_UNIT (LENGTH_MEASURE( 1.000000000000000082E-05 ), #193, 'distance_accuracy_value', 'NONE');
#29 = DIRECTION ( 'NONE',  ( -3.491481338843133355E-15, 1.224646799147353207E-16, -1.000000000000000000 ) ) ;
#30 = EDGE_LOOP ( 'NONE', ( #216 ) ) ;
#31 = SHAPE_DEFINITION_REPRESENTATION ( #79, #8 ) ;
#32 = ADVANCED_FACE ( 'NONE', ( #223, #122 ), #56, .T. ) ;
#33 = DATE_AND_TIME ( #202, #74 ) ;
#34 = APPROVAL_DATE_TIME ( #165, #205 ) ;
#35 = APPLICATION_CONTEXT ( 'configuration controlled 3d designs of mechanical parts and assemblies' ) ;
#36 = AXIS2_PLACEMENT_3D ( 'NONE', #1, #190, #45 ) ;
#37 = PERSON_AND_ORGANIZATION_ROLE ( 'creator' ) ;
#38 = CC_DESIGN_PERSON_AND_ORGANIZATION_ASSIGNMENT ( #150, #87, ( #118 ) ) ;
#39 = FACE_OUTER_BOUND ( 'NONE', #47, .T. ) ;
#40 = CLOSED_SHELL ( 'NONE', ( #109, #16, #131, #25, #113 ) ) ;
#41 = PRODUCT ( '36942', '36942', '', ( #180 ) ) ;
#42 = FACE_OUTER_BOUND ( 'NONE', #98, .T. ) ;
#43 = EDGE_CURVE ( 'NONE', #103, #103, #18, .T. ) ;
#44 = FACE_BOUND ( 'NONE', #96, .T. ) ;
#45 = DIRECTION ( 'NONE',  ( 4.275831445896958607E-31, 1.000000000000000000, 1.224646799147353207E-16 ) ) ;
#46 = PERSON_AND_ORGANIZATION ( #65, #123 ) ;
#47 = EDGE_LOOP ( 'NONE', ( #21 ) ) ;
#48 = APPLICATION_CONTEXT ( 'configuration controlled 3d designs of mechanical parts and assemblies' ) ;
#49 = CARTESIAN_POINT ( 'NONE',  ( 3.776208549444865314E-16, -1.324515660886451194E-17, 0.1081549114249619192 ) ) ;
#50 = AXIS2_PLACEMENT_3D ( 'NONE', #172, #93, #106 ) ;
#51 = VERTEX_POINT ( 'NONE', #129 ) ;
#52 = ORIENTED_EDGE ( 'NONE', *, *, #43, .F. ) ;
#53 =( NAMED_UNIT ( * ) SI_UNIT ( $, .STERADIAN. ) SOLID_ANGLE_UNIT ( ) );
#54 = AXIS2_PLACEMENT_3D ( 'NONE', #57, #173, #188 ) ;
#55 = COORDINATED_UNIVERSAL_TIME_OFFSET ( 1, 0, .AHEAD. ) ;
#56 = CYLINDRICAL_SURFACE ( 'NONE', #67, 0.1799999999999999656 ) ;
#57 = CARTESIAN_POINT ( 'NONE',  ( 1.047444401652940007E-13, -3.673940397442059178E-15, 30.00000000000000000 ) ) ;
#58 = CARTESIAN_POINT ( 'NONE',  ( 1.047444401652940007E-13, 0.3999999999999963585, 30.00000000000000000 ) ) ;
#59 = EDGE_LOOP ( 'NONE', ( #27 ) ) ;
#60 = APPLICATION_PROTOCOL_DEFINITION ( 'international standard', 'config_control_design', 1994, #48 ) ;
#61 = PLANE ( 'NONE',  #107 ) ;
#62 = AXIS2_PLACEMENT_3D ( 'NONE', #145, #160, #214 ) ;
#63 = APPLICATION_PROTOCOL_DEFINITION ( 'international standard', 'config_control_design', 1994, #35 ) ;
#64 = DIRECTION ( 'NONE',  ( 3.491481338843133355E-15, -1.224646799147353207E-16, 1.000000000000000000 ) ) ;
#65 = PERSON ( 'UNSPECIFIED', 'UNSPECIFIED', 'UNSPECIFIED', ('UNSPECIFIED'), ('UNSPECIFIED'), ('UNSPECIFIED') ) ;
#66 = AXIS2_PLACEMENT_3D ( 'NONE', #105, #17, #210 ) ;
#67 = AXIS2_PLACEMENT_3D ( 'NONE', #14, #108, #156 ) ;
#68 = SECURITY_CLASSIFICATION_LEVEL ( 'unclassified' ) ;
#69 = EDGE_CURVE ( 'NONE', #159, #159, #203, .T. ) ;
#70 = PERSON_AND_ORGANIZATION ( #65, #123 ) ;
#71 = LOCAL_TIME ( 15, 46, 53.00000000000000000, #90 ) ;
#72 = FACE_BOUND ( 'NONE', #111, .T. ) ;
#73 = CC_DESIGN_PERSON_AND_ORGANIZATION_ASSIGNMENT ( #12, #37, ( #118 ) ) ;
#74 = LOCAL_TIME ( 15, 46, 53.00000000000000000, #219 ) ;
#75 = CYLINDRICAL_SURFACE ( 'NONE', #36, 0.4999999999999982792 ) ;
#76 = PRODUCT_DEFINITION ( 'UNKNOWN', '', #118, #195 ) ;
#77 = DIRECTION ( 'NONE',  ( 0.0000000000000000000, -1.000000000000000000, 0.0000000000000000000 ) ) ;
#78 = ORIENTED_EDGE ( 'NONE', *, *, #221, .F. ) ;
#79 = PRODUCT_DEFINITION_SHAPE ( 'NONE', 'NONE',  #76 ) ;
#80 = VERTEX_POINT ( 'NONE', #5 ) ;
#81 = CIRCLE ( 'NONE', #54, 0.4000000000000000222 ) ;
#82 = APPROVAL ( #117, 'UNSPECIFIED' ) ;
#83 = CARTESIAN_POINT ( 'NONE',  ( 3.776208549444865314E-16, -1.324515660886451194E-17, 0.1081549114249619192 ) ) ;
#84 = PERSON_AND_ORGANIZATION ( #65, #123 ) ;
#85 = ORIENTED_EDGE ( 'NONE', *, *, #199, .T. ) ;
#86 = AXIS2_PLACEMENT_3D ( 'NONE', #83, #116, #19 ) ;
#87 = PERSON_AND_ORGANIZATION_ROLE ( 'design_supplier' ) ;
#88 = CC_DESIGN_APPROVAL ( #176, ( #76 ) ) ;
#89 = APPROVAL_STATUS ( 'not_yet_approved' ) ;
#90 = COORDINATED_UNIVERSAL_TIME_OFFSET ( 1, 0, .AHEAD. ) ;
#91 = DIRECTION ( 'NONE',  ( -3.491481338843133355E-15, 1.224646799147353207E-16, -1.000000000000000000 ) ) ;
#92 = CC_DESIGN_APPROVAL ( #205, ( #118 ) ) ;
#93 = DIRECTION ( 'NONE',  ( -3.491481338843133355E-15, 1.224646799147353207E-16, -1.000000000000000000 ) ) ;
#94 = FACE_OUTER_BOUND ( 'NONE', #161, .T. ) ;
#95 = DIRECTION ( 'NONE',  ( 3.491481338843133355E-15, -1.224646799147353207E-16, 1.000000000000000000 ) ) ;
#96 = EDGE_LOOP ( 'NONE', ( #181 ) ) ;
#97 = COORDINATED_UNIVERSAL_TIME_OFFSET ( 1, 0, .AHEAD. ) ;
#98 = EDGE_LOOP ( 'NONE', ( #147 ) ) ;
#99 = AXIS2_PLACEMENT_3D ( 'NONE', #144, #142, #211 ) ;
#100 = APPROVAL_ROLE ( '' ) ;
#101 = CARTESIAN_POINT ( 'NONE',  ( 1.043952920314096810E-13, 0.4999999999999963363, 29.89999999999999858 ) ) ;
#102 = EDGE_LOOP ( 'NONE', ( #4 ) ) ;
#103 = VERTEX_POINT ( 'NONE', #115 ) ;
#104 = APPROVAL_ROLE ( '' ) ;
#105 = CARTESIAN_POINT ( 'NONE',  ( 1.047444401652940007E-13, 2.999519565323660135E-33, 30.00000000000000000 ) ) ;
#106 = DIRECTION ( 'NONE',  ( 0.0000000000000000000, 1.000000000000000000, 0.0000000000000000000 ) ) ;
#107 = AXIS2_PLACEMENT_3D ( 'NONE', #134, #64, #126 ) ;
#108 = DIRECTION ( 'NONE',  ( -3.491481338843133355E-15, 1.224646799147353207E-16, -1.000000000000000000 ) ) ;
#109 = ADVANCED_FACE ( 'NONE', ( #185 ), #155, .F. ) ;
#110 = DIRECTION ( 'NONE',  ( 5.349805401075661375E-31, 1.000000000000000000, 1.505836350674313467E-16 ) ) ;
#111 = EDGE_LOOP ( 'NONE', ( #52 ) ) ;
#112 = FACE_OUTER_BOUND ( 'NONE', #30, .T. ) ;
#113 = ADVANCED_FACE ( 'NONE', ( #42 ), #222, .F. ) ;
#114 = APPROVAL_PERSON_ORGANIZATION ( #183, #205, #119 ) ;
#115 = CARTESIAN_POINT ( 'NONE',  ( 5.237222008264700033E-15, 0.1799999999999999378, 1.500000000000000000 ) ) ;
#116 = DIRECTION ( 'NONE',  ( 3.491481338843133355E-15, -1.224646799147353207E-16, 1.000000000000000000 ) ) ;
#117 = APPROVAL_STATUS ( 'not_yet_approved' ) ;
#118 = PRODUCT_DEFINITION_FORMATION_WITH_SPECIFIED_SOURCE ( 'ANY', '', #41, .NOT_KNOWN. ) ;
#119 = APPROVAL_ROLE ( '' ) ;
#120 = EDGE_CURVE ( 'NONE', #135, #135, #81, .T. ) ;
#121 = DATE_AND_TIME ( #13, #209 ) ;
#122 = FACE_OUTER_BOUND ( 'NONE', #6, .T. ) ;
#123 = ORGANIZATION ( 'UNSPECIFIED', 'UNSPECIFIED', '' ) ;
#124 = CARTESIAN_POINT ( 'NONE',  ( 5.237222008264700033E-15, -1.836970198721029934E-16, 1.500000000000000000 ) ) ;
#125 = DIRECTION ( 'NONE',  ( 0.0000000000000000000, 1.000000000000000000, 0.0000000000000000000 ) ) ;
#126 = DIRECTION ( 'NONE',  ( -4.275831445896958607E-31, -1.000000000000000000, -1.224646799147353207E-16 ) ) ;
#127 = PERSON_AND_ORGANIZATION ( #65, #123 ) ;
#128 = ORIENTED_EDGE ( 'NONE', *, *, #43, .T. ) ;
#129 = CARTESIAN_POINT ( 'NONE',  ( 3.776208549444866301E-16, 0.1799999999999997990, 0.1081549114249619470 ) ) ;
#130 = EDGE_LOOP ( 'NONE', ( #192 ) ) ;
#131 = ADVANCED_FACE ( 'NONE', ( #94, #158 ), #75, .T. ) ;
#132 = CALENDAR_DATE ( 2021, 7, 10 ) ;
#133 = DIRECTION ( 'NONE',  ( -3.491481338843133355E-15, 1.224646799147353207E-16, -1.000000000000000000 ) ) ;
#134 = CARTESIAN_POINT ( 'NONE',  ( 5.237222008264700033E-15, 1.349783804395669897E-33, 1.500000000000000000 ) ) ;
#135 = VERTEX_POINT ( 'NONE', #58 ) ;
#136 = DATE_TIME_ROLE ( 'creation_date' ) ;
#137 = CIRCLE ( 'NONE', #62, 0.4999999999999966693 ) ;
#138 = MANIFOLD_SOLID_BREP ( 'Corps-Déplacer/Copier1[2]', #186 ) ;
#139 = DIRECTION ( 'NONE',  ( 3.491481338843133355E-15, -1.224646799147353207E-16, 1.000000000000000000 ) ) ;
#140 = DIRECTION ( 'NONE',  ( 0.0000000000000000000, 1.000000000000000000, 0.0000000000000000000 ) ) ;
#141 = AXIS2_PLACEMENT_3D ( 'NONE', #174, #95, #187 ) ;
#142 = DIRECTION ( 'NONE',  ( 0.0000000000000000000, 0.0000000000000000000, 1.000000000000000000 ) ) ;
#143 = AXIS2_PLACEMENT_3D ( 'NONE', #206, #139, #77 ) ;
#144 = CARTESIAN_POINT ( 'NONE',  ( 0.0000000000000000000, 0.0000000000000000000, 0.0000000000000000000 ) ) ;
#145 = CARTESIAN_POINT ( 'NONE',  ( 9.406945448341944121E-15, -3.299512302959299693E-16, 2.694256258422059958 ) ) ;
#146 = PERSON_AND_ORGANIZATION_ROLE ( 'creator' ) ;
#147 = ORIENTED_EDGE ( 'NONE', *, *, #120, .F. ) ;
#148 = CC_DESIGN_DATE_AND_TIME_ASSIGNMENT ( #121, #136, ( #76 ) ) ;
#149 = CONICAL_SURFACE ( 'NONE', #50, 0.4000000000000000222, 0.7853981633974512766 ) ;
#150 = PERSON_AND_ORGANIZATION ( #65, #123 ) ;
#151 = CC_DESIGN_DATE_AND_TIME_ASSIGNMENT ( #220, #201, ( #196 ) ) ;
#152 = CALENDAR_DATE ( 2021, 7, 10 ) ;
#153 = LOCAL_TIME ( 15, 46, 53.00000000000000000, #97 ) ;
#154 = PERSON_AND_ORGANIZATION_ROLE ( 'classification_officer' ) ;
#155 = PLANE ( 'NONE',  #141 ) ;
#156 = DIRECTION ( 'NONE',  ( 4.275831445896958607E-31, 1.000000000000000000, 1.224646799147353207E-16 ) ) ;
#157 = AXIS2_PLACEMENT_3D ( 'NONE', #49, #29, #110 ) ;
#158 = FACE_OUTER_BOUND ( 'NONE', #23, .T. ) ;
#159 = VERTEX_POINT ( 'NONE', #101 ) ;
#160 = DIRECTION ( 'NONE',  ( -3.491481338843133355E-15, 1.224646799147353207E-16, -1.000000000000000000 ) ) ;
#161 = EDGE_LOOP ( 'NONE', ( #78 ) ) ;
#162 = CARTESIAN_POINT ( 'NONE',  ( 5.237222008264700033E-15, -1.836970198721029934E-16, 1.500000000000000000 ) ) ;
#163 = FACE_OUTER_BOUND ( 'NONE', #102, .T. ) ;
#164 =( GEOMETRIC_REPRESENTATION_CONTEXT ( 3 ) GLOBAL_UNCERTAINTY_ASSIGNED_CONTEXT ( ( #28 ) ) GLOBAL_UNIT_ASSIGNED_CONTEXT ( ( #193, #197, #53 ) ) REPRESENTATION_CONTEXT ( 'NONE', 'WORKASPACE' ) );
#165 = DATE_AND_TIME ( #217, #11 ) ;
#166 = EDGE_CURVE ( 'NONE', #51, #51, #171, .T. ) ;
#167 = APPROVAL_DATE_TIME ( #33, #82 ) ;
#168 = APPROVAL_PERSON_ORGANIZATION ( #70, #82, #104 ) ;
#169 = PERSON_AND_ORGANIZATION ( #65, #123 ) ;
#170 = FACE_OUTER_BOUND ( 'NONE', #130, .T. ) ;
#171 = CIRCLE ( 'NONE', #157, 0.1799999999999997990 ) ;
#172 = CARTESIAN_POINT ( 'NONE',  ( 1.047444401652940007E-13, -3.673940397442059178E-15, 30.00000000000000000 ) ) ;
#173 = DIRECTION ( 'NONE',  ( -3.491481338843133355E-15, 1.224646799147353207E-16, -1.000000000000000000 ) ) ;
#174 = CARTESIAN_POINT ( 'NONE',  ( 5.237222008264700033E-15, 1.349783804395669897E-33, 1.500000000000000000 ) ) ;
#175 = AXIS2_PLACEMENT_3D ( 'NONE', #208, #204, #125 ) ;
#176 = APPROVAL ( #20, 'UNSPECIFIED' ) ;
#177 = CARTESIAN_POINT ( 'NONE',  ( 9.406945448341944121E-15, 0.4999999999999963363, 2.694256258422059958 ) ) ;
#178 = ORIENTED_EDGE ( 'NONE', *, *, #69, .T. ) ;
#179 = CONICAL_SURFACE ( 'NONE', #143, 0.4999999999999966693, 0.2617993877991426355 ) ;
#180 = MECHANICAL_CONTEXT ( 'NONE', #35, 'mechanical' ) ;
#181 = ORIENTED_EDGE ( 'NONE', *, *, #120, .T. ) ;
#182 = ADVANCED_FACE ( 'NONE', ( #112 ), #7, .T. ) ;
#183 = PERSON_AND_ORGANIZATION ( #65, #123 ) ;
#184 = CC_DESIGN_SECURITY_CLASSIFICATION ( #196, ( #118 ) ) ;
#185 = FACE_OUTER_BOUND ( 'NONE', #194, .T. ) ;
#186 = CLOSED_SHELL ( 'NONE', ( #182, #32, #15 ) ) ;
#187 = DIRECTION ( 'NONE',  ( -4.275831445896958607E-31, -1.000000000000000000, -1.224646799147353207E-16 ) ) ;
#188 = DIRECTION ( 'NONE',  ( 0.0000000000000000000, 1.000000000000000000, 0.0000000000000000000 ) ) ;
#189 = CC_DESIGN_PERSON_AND_ORGANIZATION_ASSIGNMENT ( #169, #154, ( #196 ) ) ;
#190 = DIRECTION ( 'NONE',  ( -3.491481338843133355E-15, 1.224646799147353207E-16, -1.000000000000000000 ) ) ;
#191 = CC_DESIGN_APPROVAL ( #82, ( #196 ) ) ;
#192 = ORIENTED_EDGE ( 'NONE', *, *, #69, .F. ) ;
#193 =( LENGTH_UNIT ( ) NAMED_UNIT ( * ) SI_UNIT ( .MILLI., .METRE. ) );
#194 = EDGE_LOOP ( 'NONE', ( #128 ) ) ;
#195 = DESIGN_CONTEXT ( 'detailed design', #48, 'design' ) ;
#196 = SECURITY_CLASSIFICATION ( '', '', #68 ) ;
#197 =( NAMED_UNIT ( * ) PLANE_ANGLE_UNIT ( ) SI_UNIT ( $, .RADIAN. ) );
#198 = VERTEX_POINT ( 'NONE', #177 ) ;
#199 = EDGE_CURVE ( 'NONE', #80, #80, #200, .T. ) ;
#200 = CIRCLE ( 'NONE', #2, 0.1800000000000001321 ) ;
#201 = DATE_TIME_ROLE ( 'classification_date' ) ;
#202 = CALENDAR_DATE ( 2021, 7, 10 ) ;
#203 = CIRCLE ( 'NONE', #175, 0.5000000000000000000 ) ;
#204 = DIRECTION ( 'NONE',  ( -3.491481338843133355E-15, 1.224646799147353207E-16, -1.000000000000000000 ) ) ;
#205 = APPROVAL ( #89, 'UNSPECIFIED' ) ;
#206 = CARTESIAN_POINT ( 'NONE',  ( 9.406945448341944121E-15, -3.299512302959299693E-16, 2.694256258422059958 ) ) ;
#207 = CC_DESIGN_PERSON_AND_ORGANIZATION_ASSIGNMENT ( #127, #22, ( #41 ) ) ;
#208 = CARTESIAN_POINT ( 'NONE',  ( 1.043952920314096810E-13, -3.661693929450586610E-15, 29.89999999999999858 ) ) ;
#209 = LOCAL_TIME ( 15, 46, 53.00000000000000000, #215 ) ;
#210 = DIRECTION ( 'NONE',  ( 4.275831445896958607E-31, 1.000000000000000000, 1.224646799147353207E-16 ) ) ;
#211 = DIRECTION ( 'NONE',  ( 1.000000000000000000, 0.0000000000000000000, 0.0000000000000000000 ) ) ;
#212 = MANIFOLD_SOLID_BREP ( 'Corps-Déplacer/Copier1[1]', #40 ) ;
#213 = DIRECTION ( 'NONE',  ( 0.0000000000000000000, 1.000000000000000000, 0.0000000000000000000 ) ) ;
#214 = DIRECTION ( 'NONE',  ( 0.0000000000000000000, 1.000000000000000000, 0.0000000000000000000 ) ) ;
#215 = COORDINATED_UNIVERSAL_TIME_OFFSET ( 1, 0, .AHEAD. ) ;
#216 = ORIENTED_EDGE ( 'NONE', *, *, #166, .T. ) ;
#217 = CALENDAR_DATE ( 2021, 7, 10 ) ;
#218 = AXIS2_PLACEMENT_3D ( 'NONE', #124, #91, #140 ) ;
#219 = COORDINATED_UNIVERSAL_TIME_OFFSET ( 1, 0, .AHEAD. ) ;
#220 = DATE_AND_TIME ( #152, #71 ) ;
#221 = EDGE_CURVE ( 'NONE', #198, #198, #137, .T. ) ;
#222 = PLANE ( 'NONE',  #66 ) ;
#223 = FACE_OUTER_BOUND ( 'NONE', #59, .T. ) ;
ENDSEC;
END-ISO-10303-21;
