ISO-10303-21;
HEADER;
FILE_DESCRIPTION (( 'STEP AP203' ),
    '1' );
FILE_NAME ('36941.step',
    '2021-10-07T13:46:52',
    ( '' ),
    ( '' ),
    'SwSTEP 2.0',
    'SolidWorks 2019',
    '' );
FILE_SCHEMA (( 'CONFIG_CONTROL_DESIGN' ));
ENDSEC;

DATA;
#1 = ADVANCED_FACE ( 'NONE', ( #2, #173 ), #34, .T. ) ;
#2 = FACE_OUTER_BOUND ( 'NONE', #39, .T. ) ;
#3 = CC_DESIGN_APPROVAL ( #32, ( #189 ) ) ;
#4 = DIRECTION ( 'NONE',  ( 0.0000000000000000000, 1.000000000000000000, 0.0000000000000000000 ) ) ;
#5 = EDGE_CURVE ( 'NONE', #160, #160, #115, .T. ) ;
#6 = DIRECTION ( 'NONE',  ( -4.275831445896958607E-31, -1.000000000000000000, -1.224646799147353207E-16 ) ) ;
#7 = LOCAL_TIME ( 15, 46, 52.00000000000000000, #68 ) ;
#8 = DIRECTION ( 'NONE',  ( 4.275831445896958607E-31, 1.000000000000000000, 1.224646799147353207E-16 ) ) ;
#9 = FACE_OUTER_BOUND ( 'NONE', #73, .T. ) ;
#10 = APPROVAL ( #15, 'UNSPECIFIED' ) ;
#11 =( GEOMETRIC_REPRESENTATION_CONTEXT ( 3 ) GLOBAL_UNCERTAINTY_ASSIGNED_CONTEXT ( ( #207 ) ) GLOBAL_UNIT_ASSIGNED_CONTEXT ( ( #27, #42, #47 ) ) REPRESENTATION_CONTEXT ( 'NONE', 'WORKASPACE' ) );
#12 = VERTEX_POINT ( 'NONE', #214 ) ;
#13 = DIRECTION ( 'NONE',  ( 0.0000000000000000000, 1.000000000000000000, 0.0000000000000000000 ) ) ;
#14 = PERSON_AND_ORGANIZATION_ROLE ( 'design_supplier' ) ;
#15 = APPROVAL_STATUS ( 'not_yet_approved' ) ;
#16 = CC_DESIGN_DATE_AND_TIME_ASSIGNMENT ( #150, #17, ( #189 ) ) ;
#17 = DATE_TIME_ROLE ( 'classification_date' ) ;
#18 = CLOSED_SHELL ( 'NONE', ( #146, #54, #46, #1, #43 ) ) ;
#19 = DIRECTION ( 'NONE',  ( 0.0000000000000000000, 0.0000000000000000000, 1.000000000000000000 ) ) ;
#20 = EDGE_LOOP ( 'NONE', ( #135 ) ) ;
#21 = ADVANCED_FACE ( 'NONE', ( #88 ), #38, .T. ) ;
#22 = DIRECTION ( 'NONE',  ( -3.491481338843133355E-15, 1.224646799147353207E-16, -1.000000000000000000 ) ) ;
#23 = DIRECTION ( 'NONE',  ( -3.491481338843133355E-15, 1.224646799147353207E-16, -1.000000000000000000 ) ) ;
#24 = AXIS2_PLACEMENT_3D ( 'NONE', #74, #191, #75 ) ;
#25 = DIRECTION ( 'NONE',  ( 0.0000000000000000000, 1.000000000000000000, 0.0000000000000000000 ) ) ;
#26 = CARTESIAN_POINT ( 'NONE',  ( 9.472097377093152391E-15, 0.4999999999999963363, 2.712916512459904617 ) ) ;
#27 =( LENGTH_UNIT ( ) NAMED_UNIT ( * ) SI_UNIT ( .MILLI., .METRE. ) );
#28 = CARTESIAN_POINT ( 'NONE',  ( 3.671313867515842483E-16, 0.1749999999999998224, 0.1051506083298241190 ) ) ;
#29 = APPROVAL_STATUS ( 'not_yet_approved' ) ;
#30 = AXIS2_PLACEMENT_3D ( 'NONE', #138, #159, #6 ) ;
#31 = CALENDAR_DATE ( 2021, 7, 10 ) ;
#32 = APPROVAL ( #111, 'UNSPECIFIED' ) ;
#33 = CARTESIAN_POINT ( 'NONE',  ( 1.043952920314096810E-13, -3.661693929450586610E-15, 29.89999999999999858 ) ) ;
#34 = CONICAL_SURFACE ( 'NONE', #136, 0.4000000000000000222, 0.7853981633974512766 ) ;
#35 = PRODUCT_DEFINITION_FORMATION_WITH_SPECIFIED_SOURCE ( 'ANY', '', #197, .NOT_KNOWN. ) ;
#36 = EDGE_LOOP ( 'NONE', ( #155 ) ) ;
#37 = ORIENTED_EDGE ( 'NONE', *, *, #107, .F. ) ;
#38 = PLANE ( 'NONE',  #30 ) ;
#39 = EDGE_LOOP ( 'NONE', ( #121 ) ) ;
#40 = FACE_OUTER_BOUND ( 'NONE', #20, .T. ) ;
#41 = FACE_OUTER_BOUND ( 'NONE', #153, .T. ) ;
#42 =( NAMED_UNIT ( * ) PLANE_ANGLE_UNIT ( ) SI_UNIT ( $, .RADIAN. ) );
#43 = ADVANCED_FACE ( 'NONE', ( #40 ), #208, .F. ) ;
#44 = VERTEX_POINT ( 'NONE', #28 ) ;
#45 = DIRECTION ( 'NONE',  ( -5.502656983963536639E-31, -1.000000000000000000, -1.548860246407865062E-16 ) ) ;
#46 = ADVANCED_FACE ( 'NONE', ( #142, #212 ), #192, .T. ) ;
#47 =( NAMED_UNIT ( * ) SI_UNIT ( $, .STERADIAN. ) SOLID_ANGLE_UNIT ( ) );
#48 = APPLICATION_CONTEXT ( 'configuration controlled 3d designs of mechanical parts and assemblies' ) ;
#49 = DATE_AND_TIME ( #204, #7 ) ;
#50 = PERSON_AND_ORGANIZATION ( #134, #126 ) ;
#51 = AXIS2_PLACEMENT_3D ( 'NONE', #110, #216, #213 ) ;
#52 = LOCAL_TIME ( 15, 46, 52.00000000000000000, #132 ) ;
#53 = PERSON_AND_ORGANIZATION_ROLE ( 'creator' ) ;
#54 = ADVANCED_FACE ( 'NONE', ( #193, #41 ), #154, .T. ) ;
#55 = CC_DESIGN_PERSON_AND_ORGANIZATION_ASSIGNMENT ( #99, #147, ( #197 ) ) ;
#56 = APPROVAL_DATE_TIME ( #151, #161 ) ;
#57 = EDGE_LOOP ( 'NONE', ( #156 ) ) ;
#58 = MANIFOLD_SOLID_BREP ( 'Corps-Déplacer/Copier1[1]', #18 ) ;
#59 = ORIENTED_EDGE ( 'NONE', *, *, #60, .T. ) ;
#60 = EDGE_CURVE ( 'NONE', #44, #44, #210, .T. ) ;
#61 = AXIS2_PLACEMENT_3D ( 'NONE', #143, #122, #162 ) ;
#62 = ORIENTED_EDGE ( 'NONE', *, *, #5, .T. ) ;
#63 = DIRECTION ( 'NONE',  ( 5.502656983963536639E-31, 1.000000000000000000, 1.548860246407865062E-16 ) ) ;
#64 = CC_DESIGN_APPROVAL ( #161, ( #35 ) ) ;
#65 = DIRECTION ( 'NONE',  ( 4.275831445896958607E-31, 1.000000000000000000, 1.224646799147353207E-16 ) ) ;
#66 = CARTESIAN_POINT ( 'NONE',  ( 5.237222008264700033E-15, -1.836970198721029934E-16, 1.500000000000000000 ) ) ;
#67 = APPLICATION_PROTOCOL_DEFINITION ( 'international standard', 'config_control_design', 1994, #72 ) ;
#68 = COORDINATED_UNIVERSAL_TIME_OFFSET ( 1, 0, .AHEAD. ) ;
#69 = DATE_AND_TIME ( #200, #52 ) ;
#70 = EDGE_CURVE ( 'NONE', #12, #12, #179, .T. ) ;
#71 = CARTESIAN_POINT ( 'NONE',  ( 0.0000000000000000000, 0.0000000000000000000, 0.0000000000000000000 ) ) ;
#72 = APPLICATION_CONTEXT ( 'configuration controlled 3d designs of mechanical parts and assemblies' ) ;
#73 = EDGE_LOOP ( 'NONE', ( #59 ) ) ;
#74 = CARTESIAN_POINT ( 'NONE',  ( 1.047444401652940007E-13, 2.999519565323660135E-33, 30.00000000000000000 ) ) ;
#75 = DIRECTION ( 'NONE',  ( 4.275831445896958607E-31, 1.000000000000000000, 1.224646799147353207E-16 ) ) ;
#76 = FACE_OUTER_BOUND ( 'NONE', #57, .T. ) ;
#77 = APPLICATION_PROTOCOL_DEFINITION ( 'international standard', 'config_control_design', 1994, #48 ) ;
#78 = CARTESIAN_POINT ( 'NONE',  ( 5.237222008264700033E-15, 0.1749999999999998224, 1.500000000000000000 ) ) ;
#79 = PERSON_AND_ORGANIZATION ( #134, #126 ) ;
#80 = PERSON_AND_ORGANIZATION_ROLE ( 'classification_officer' ) ;
#81 = APPROVAL_DATE_TIME ( #203, #10 ) ;
#82 = AXIS2_PLACEMENT_3D ( 'NONE', #104, #145, #65 ) ;
#83 = PERSON_AND_ORGANIZATION ( #134, #126 ) ;
#84 = ORIENTED_EDGE ( 'NONE', *, *, #60, .F. ) ;
#85 = EDGE_LOOP ( 'NONE', ( #84 ) ) ;
#86 = CIRCLE ( 'NONE', #61, 0.4999999999999966693 ) ;
#87 = ADVANCED_BREP_SHAPE_REPRESENTATION ( '36941', ( #58, #127, #215 ), #11 ) ;
#88 = FACE_OUTER_BOUND ( 'NONE', #36, .T. ) ;
#89 = DIRECTION ( 'NONE',  ( -3.491481338843133355E-15, 1.224646799147353207E-16, -1.000000000000000000 ) ) ;
#90 = DIRECTION ( 'NONE',  ( 3.491481338843133355E-15, -1.224646799147353207E-16, 1.000000000000000000 ) ) ;
#91 = DIRECTION ( 'NONE',  ( -3.491481338843133355E-15, 1.224646799147353207E-16, -1.000000000000000000 ) ) ;
#92 = AXIS2_PLACEMENT_3D ( 'NONE', #218, #144, #63 ) ;
#93 = VERTEX_POINT ( 'NONE', #78 ) ;
#94 = CARTESIAN_POINT ( 'NONE',  ( 9.472097377093152391E-15, -3.322364523338022408E-16, 2.712916512459904617 ) ) ;
#95 = CALENDAR_DATE ( 2021, 7, 10 ) ;
#96 = PRODUCT_RELATED_PRODUCT_CATEGORY ( 'detail', '', ( #197 ) ) ;
#97 = APPROVAL_PERSON_ORGANIZATION ( #223, #32, #221 ) ;
#98 = MECHANICAL_CONTEXT ( 'NONE', #48, 'mechanical' ) ;
#99 = PERSON_AND_ORGANIZATION ( #134, #126 ) ;
#100 = CC_DESIGN_APPROVAL ( #10, ( #169 ) ) ;
#101 = COORDINATED_UNIVERSAL_TIME_OFFSET ( 1, 0, .AHEAD. ) ;
#102 = ORIENTED_EDGE ( 'NONE', *, *, #171, .F. ) ;
#103 = AXIS2_PLACEMENT_3D ( 'NONE', #129, #91, #13 ) ;
#104 = CARTESIAN_POINT ( 'NONE',  ( 0.0000000000000000000, 0.0000000000000000000, 0.0000000000000000000 ) ) ;
#105 = CC_DESIGN_SECURITY_CLASSIFICATION ( #189, ( #35 ) ) ;
#106 = PRODUCT_DEFINITION_SHAPE ( 'NONE', 'NONE',  #169 ) ;
#107 = EDGE_CURVE ( 'NONE', #163, #163, #86, .T. ) ;
#108 = DIRECTION ( 'NONE',  ( -3.491481338843133355E-15, 1.224646799147353207E-16, -1.000000000000000000 ) ) ;
#109 = CC_DESIGN_DATE_AND_TIME_ASSIGNMENT ( #49, #165, ( #169 ) ) ;
#110 = CARTESIAN_POINT ( 'NONE',  ( 5.237222008264700033E-15, 1.312289809829122841E-33, 1.500000000000000000 ) ) ;
#111 = APPROVAL_STATUS ( 'not_yet_approved' ) ;
#112 = APPROVAL_ROLE ( '' ) ;
#113 = CALENDAR_DATE ( 2021, 7, 10 ) ;
#114 = APPROVAL_DATE_TIME ( #69, #32 ) ;
#115 = CIRCLE ( 'NONE', #124, 0.5000000000000000000 ) ;
#116 = CARTESIAN_POINT ( 'NONE',  ( 1.047444401652940007E-13, -3.673940397442059178E-15, 30.00000000000000000 ) ) ;
#117 = ADVANCED_FACE ( 'NONE', ( #9 ), #175, .T. ) ;
#118 = EDGE_LOOP ( 'NONE', ( #211 ) ) ;
#119 = CIRCLE ( 'NONE', #103, 0.4000000000000000222 ) ;
#120 = LOCAL_TIME ( 15, 46, 52.00000000000000000, #183 ) ;
#121 = ORIENTED_EDGE ( 'NONE', *, *, #5, .F. ) ;
#122 = DIRECTION ( 'NONE',  ( -3.491481338843133355E-15, 1.224646799147353207E-16, -1.000000000000000000 ) ) ;
#123 = EDGE_CURVE ( 'NONE', #164, #164, #119, .T. ) ;
#124 = AXIS2_PLACEMENT_3D ( 'NONE', #33, #185, #4 ) ;
#125 = DIRECTION ( 'NONE',  ( 0.0000000000000000000, -1.000000000000000000, 0.0000000000000000000 ) ) ;
#126 = ORGANIZATION ( 'UNSPECIFIED', 'UNSPECIFIED', '' ) ;
#127 = MANIFOLD_SOLID_BREP ( 'Corps-Déplacer/Copier1[2]', #166 ) ;
#128 = DIRECTION ( 'NONE',  ( 3.491481338843133355E-15, -1.224646799147353207E-16, 1.000000000000000000 ) ) ;
#129 = CARTESIAN_POINT ( 'NONE',  ( 1.047444401652940007E-13, -3.673940397442059178E-15, 30.00000000000000000 ) ) ;
#130 = DIRECTION ( 'NONE',  ( 0.0000000000000000000, 1.000000000000000000, 0.0000000000000000000 ) ) ;
#131 = COORDINATED_UNIVERSAL_TIME_OFFSET ( 1, 0, .AHEAD. ) ;
#132 = COORDINATED_UNIVERSAL_TIME_OFFSET ( 1, 0, .AHEAD. ) ;
#133 = DIRECTION ( 'NONE',  ( 1.000000000000000000, 0.0000000000000000000, 0.0000000000000000000 ) ) ;
#134 = PERSON ( 'UNSPECIFIED', 'UNSPECIFIED', 'UNSPECIFIED', ('UNSPECIFIED'), ('UNSPECIFIED'), ('UNSPECIFIED') ) ;
#135 = ORIENTED_EDGE ( 'NONE', *, *, #123, .F. ) ;
#136 = AXIS2_PLACEMENT_3D ( 'NONE', #116, #22, #187 ) ;
#137 = LOCAL_TIME ( 15, 46, 52.00000000000000000, #131 ) ;
#138 = CARTESIAN_POINT ( 'NONE',  ( 5.237222008264700033E-15, 1.312289809829122841E-33, 1.500000000000000000 ) ) ;
#139 = DESIGN_CONTEXT ( 'detailed design', #72, 'design' ) ;
#140 = ORIENTED_EDGE ( 'NONE', *, *, #107, .T. ) ;
#141 = AXIS2_PLACEMENT_3D ( 'NONE', #66, #108, #25 ) ;
#142 = FACE_OUTER_BOUND ( 'NONE', #188, .T. ) ;
#143 = CARTESIAN_POINT ( 'NONE',  ( 9.472097377093152391E-15, -3.322364523338022408E-16, 2.712916512459904617 ) ) ;
#144 = DIRECTION ( 'NONE',  ( -3.491481338843133355E-15, 1.224646799147353207E-16, -1.000000000000000000 ) ) ;
#145 = DIRECTION ( 'NONE',  ( -3.491481338843133355E-15, 1.224646799147353207E-16, -1.000000000000000000 ) ) ;
#146 = ADVANCED_FACE ( 'NONE', ( #76 ), #199, .F. ) ;
#147 = PERSON_AND_ORGANIZATION_ROLE ( 'design_owner' ) ;
#148 = APPROVAL_PERSON_ORGANIZATION ( #83, #161, #112 ) ;
#149 = SHAPE_DEFINITION_REPRESENTATION ( #106, #87 ) ;
#150 = DATE_AND_TIME ( #95, #158 ) ;
#151 = DATE_AND_TIME ( #113, #120 ) ;
#152 = PERSON_AND_ORGANIZATION ( #134, #126 ) ;
#153 = EDGE_LOOP ( 'NONE', ( #140 ) ) ;
#154 = CONICAL_SURFACE ( 'NONE', #222, 0.4999999999999966693, 0.2617993877991428575 ) ;
#155 = ORIENTED_EDGE ( 'NONE', *, *, #70, .F. ) ;
#156 = ORIENTED_EDGE ( 'NONE', *, *, #171, .T. ) ;
#157 = AXIS2_PLACEMENT_3D ( 'NONE', #174, #23, #8 ) ;
#158 = LOCAL_TIME ( 15, 46, 52.00000000000000000, #101 ) ;
#159 = DIRECTION ( 'NONE',  ( 3.491481338843133355E-15, -1.224646799147353207E-16, 1.000000000000000000 ) ) ;
#160 = VERTEX_POINT ( 'NONE', #198 ) ;
#161 = APPROVAL ( #29, 'UNSPECIFIED' ) ;
#162 = DIRECTION ( 'NONE',  ( 0.0000000000000000000, 1.000000000000000000, 0.0000000000000000000 ) ) ;
#163 = VERTEX_POINT ( 'NONE', #26 ) ;
#164 = VERTEX_POINT ( 'NONE', #217 ) ;
#165 = DATE_TIME_ROLE ( 'creation_date' ) ;
#166 = CLOSED_SHELL ( 'NONE', ( #117, #167, #21 ) ) ;
#167 = ADVANCED_FACE ( 'NONE', ( #180, #196 ), #178, .T. ) ;
#168 = PERSON_AND_ORGANIZATION ( #134, #126 ) ;
#169 = PRODUCT_DEFINITION ( 'UNKNOWN', '', #35, #139 ) ;
#170 = AXIS2_PLACEMENT_3D ( 'NONE', #176, #90, #45 ) ;
#171 = EDGE_CURVE ( 'NONE', #93, #93, #202, .T. ) ;
#172 = CC_DESIGN_PERSON_AND_ORGANIZATION_ASSIGNMENT ( #79, #181, ( #35 ) ) ;
#173 = FACE_BOUND ( 'NONE', #209, .T. ) ;
#174 = CARTESIAN_POINT ( 'NONE',  ( 0.0000000000000000000, 0.0000000000000000000, 0.0000000000000000000 ) ) ;
#175 = CONICAL_SURFACE ( 'NONE', #170, 0.1749999999999998224, 1.029744258676649649 ) ;
#176 = CARTESIAN_POINT ( 'NONE',  ( 3.671313867515841497E-16, -1.287723559195160845E-17, 0.1051506083298240912 ) ) ;
#177 = CARTESIAN_POINT ( 'NONE',  ( 5.237222008264700033E-15, -1.836970198721029934E-16, 1.500000000000000000 ) ) ;
#178 = CYLINDRICAL_SURFACE ( 'NONE', #82, 0.1749999999999999056 ) ;
#179 = CIRCLE ( 'NONE', #206, 0.1750000000000000167 ) ;
#180 = FACE_OUTER_BOUND ( 'NONE', #85, .T. ) ;
#181 = PERSON_AND_ORGANIZATION_ROLE ( 'creator' ) ;
#182 = PERSON_AND_ORGANIZATION ( #134, #126 ) ;
#183 = COORDINATED_UNIVERSAL_TIME_OFFSET ( 1, 0, .AHEAD. ) ;
#184 = SECURITY_CLASSIFICATION_LEVEL ( 'unclassified' ) ;
#185 = DIRECTION ( 'NONE',  ( -3.491481338843133355E-15, 1.224646799147353207E-16, -1.000000000000000000 ) ) ;
#186 = EDGE_LOOP ( 'NONE', ( #62 ) ) ;
#187 = DIRECTION ( 'NONE',  ( 0.0000000000000000000, 1.000000000000000000, 0.0000000000000000000 ) ) ;
#188 = EDGE_LOOP ( 'NONE', ( #37 ) ) ;
#189 = SECURITY_CLASSIFICATION ( '', '', #184 ) ;
#190 = EDGE_LOOP ( 'NONE', ( #102 ) ) ;
#191 = DIRECTION ( 'NONE',  ( -3.491481338843133355E-15, 1.224646799147353207E-16, -1.000000000000000000 ) ) ;
#192 = CYLINDRICAL_SURFACE ( 'NONE', #157, 0.4999999999999982792 ) ;
#193 = FACE_BOUND ( 'NONE', #190, .T. ) ;
#194 = CC_DESIGN_PERSON_AND_ORGANIZATION_ASSIGNMENT ( #50, #14, ( #35 ) ) ;
#195 = APPROVAL_PERSON_ORGANIZATION ( #182, #10, #219 ) ;
#196 = FACE_OUTER_BOUND ( 'NONE', #118, .T. ) ;
#197 = PRODUCT ( '36941', '36941', '', ( #98 ) ) ;
#198 = CARTESIAN_POINT ( 'NONE',  ( 1.043952920314096810E-13, 0.4999999999999963363, 29.89999999999999858 ) ) ;
#199 = PLANE ( 'NONE',  #51 ) ;
#200 = CALENDAR_DATE ( 2021, 7, 10 ) ;
#201 = CC_DESIGN_PERSON_AND_ORGANIZATION_ASSIGNMENT ( #152, #80, ( #189 ) ) ;
#202 = CIRCLE ( 'NONE', #141, 0.1750000000000000167 ) ;
#203 = DATE_AND_TIME ( #31, #137 ) ;
#204 = CALENDAR_DATE ( 2021, 7, 10 ) ;
#205 = ORIENTED_EDGE ( 'NONE', *, *, #123, .T. ) ;
#206 = AXIS2_PLACEMENT_3D ( 'NONE', #177, #89, #130 ) ;
#207 = UNCERTAINTY_MEASURE_WITH_UNIT (LENGTH_MEASURE( 1.000000000000000082E-05 ), #27, 'distance_accuracy_value', 'NONE');
#208 = PLANE ( 'NONE',  #24 ) ;
#209 = EDGE_LOOP ( 'NONE', ( #205 ) ) ;
#210 = CIRCLE ( 'NONE', #92, 0.1749999999999998224 ) ;
#211 = ORIENTED_EDGE ( 'NONE', *, *, #70, .T. ) ;
#212 = FACE_OUTER_BOUND ( 'NONE', #186, .T. ) ;
#213 = DIRECTION ( 'NONE',  ( -4.275831445896958607E-31, -1.000000000000000000, -1.224646799147353207E-16 ) ) ;
#214 = CARTESIAN_POINT ( 'NONE',  ( 5.237222008264700033E-15, 0.1749999999999998224, 1.500000000000000000 ) ) ;
#215 = AXIS2_PLACEMENT_3D ( 'NONE', #71, #19, #133 ) ;
#216 = DIRECTION ( 'NONE',  ( 3.491481338843133355E-15, -1.224646799147353207E-16, 1.000000000000000000 ) ) ;
#217 = CARTESIAN_POINT ( 'NONE',  ( 1.047444401652940007E-13, 0.3999999999999963585, 30.00000000000000000 ) ) ;
#218 = CARTESIAN_POINT ( 'NONE',  ( 3.671313867515841497E-16, -1.287723559195160845E-17, 0.1051506083298240912 ) ) ;
#219 = APPROVAL_ROLE ( '' ) ;
#220 = CC_DESIGN_PERSON_AND_ORGANIZATION_ASSIGNMENT ( #168, #53, ( #169 ) ) ;
#221 = APPROVAL_ROLE ( '' ) ;
#222 = AXIS2_PLACEMENT_3D ( 'NONE', #94, #128, #125 ) ;
#223 = PERSON_AND_ORGANIZATION ( #134, #126 ) ;
ENDSEC;
END-ISO-10303-21;
