ISO-10303-21;
HEADER;
FILE_DESCRIPTION (( 'STEP AP203' ),
    '1' );
FILE_NAME ('36940.step',
    '2021-10-07T13:46:52',
    ( '' ),
    ( '' ),
    'SwSTEP 2.0',
    'SolidWorks 2019',
    '' );
FILE_SCHEMA (( 'CONFIG_CONTROL_DESIGN' ));
ENDSEC;

DATA;
#1 = CARTESIAN_POINT ( 'NONE',  ( 9.537249305844362239E-15, 0.4999999999999963363, 2.731576766497750164 ) ) ;
#2 = ORIENTED_EDGE ( 'NONE', *, *, #220, .F. ) ;
#3 = DIRECTION ( 'NONE',  ( -4.275831445896958607E-31, -1.000000000000000000, -1.224646799147353207E-16 ) ) ;
#4 = DIRECTION ( 'NONE',  ( -5.664499836433052448E-31, -1.000000000000000000, -1.594414959537508159E-16 ) ) ;
#5 = APPROVAL_DATE_TIME ( #96, #8 ) ;
#6 = AXIS2_PLACEMENT_3D ( 'NONE', #60, #155, #160 ) ;
#7 = COORDINATED_UNIVERSAL_TIME_OFFSET ( 1, 0, .AHEAD. ) ;
#8 = APPROVAL ( #132, 'UNSPECIFIED' ) ;
#9 = DIRECTION ( 'NONE',  ( 1.000000000000000000, 0.0000000000000000000, 0.0000000000000000000 ) ) ;
#10 = ORIENTED_EDGE ( 'NONE', *, *, #117, .T. ) ;
#11 = VERTEX_POINT ( 'NONE', #144 ) ;
#12 = APPROVAL_PERSON_ORGANIZATION ( #197, #8, #48 ) ;
#13 = APPLICATION_CONTEXT ( 'configuration controlled 3d designs of mechanical parts and assemblies' ) ;
#14 = FACE_OUTER_BOUND ( 'NONE', #65, .T. ) ;
#15 = DIRECTION ( 'NONE',  ( 3.491481338843133355E-15, -1.224646799147353207E-16, 1.000000000000000000 ) ) ;
#16 = CYLINDRICAL_SURFACE ( 'NONE', #168, 0.4999999999999982792 ) ;
#17 = CC_DESIGN_APPROVAL ( #51, ( #216 ) ) ;
#18 = ADVANCED_FACE ( 'NONE', ( #128 ), #205, .T. ) ;
#19 = DIRECTION ( 'NONE',  ( -3.491481338843133355E-15, 1.224646799147353207E-16, -1.000000000000000000 ) ) ;
#20 = CARTESIAN_POINT ( 'NONE',  ( 5.237222008264700033E-15, 0.1699999999999998179, 1.500000000000000000 ) ) ;
#21 = EDGE_LOOP ( 'NONE', ( #196 ) ) ;
#22 = ADVANCED_FACE ( 'NONE', ( #146 ), #214, .T. ) ;
#23 = AXIS2_PLACEMENT_3D ( 'NONE', #142, #125, #169 ) ;
#24 = ORIENTED_EDGE ( 'NONE', *, *, #220, .T. ) ;
#25 = APPROVAL_ROLE ( '' ) ;
#26 = CARTESIAN_POINT ( 'NONE',  ( 0.0000000000000000000, 0.0000000000000000000, 0.0000000000000000000 ) ) ;
#27 = APPLICATION_CONTEXT ( 'configuration controlled 3d designs of mechanical parts and assemblies' ) ;
#28 = EDGE_LOOP ( 'NONE', ( #10 ) ) ;
#29 = PERSON_AND_ORGANIZATION ( #199, #187 ) ;
#30 = CC_DESIGN_PERSON_AND_ORGANIZATION_ASSIGNMENT ( #181, #213, ( #178 ) ) ;
#31 = PERSON_AND_ORGANIZATION_ROLE ( 'design_supplier' ) ;
#32 = AXIS2_PLACEMENT_3D ( 'NONE', #223, #210, #112 ) ;
#33 = ADVANCED_FACE ( 'NONE', ( #40 ), #36, .F. ) ;
#34 = APPROVAL_PERSON_ORGANIZATION ( #200, #51, #86 ) ;
#35 = DATE_TIME_ROLE ( 'classification_date' ) ;
#36 = PLANE ( 'NONE',  #97 ) ;
#37 = CC_DESIGN_SECURITY_CLASSIFICATION ( #216, ( #137 ) ) ;
#38 = LOCAL_TIME ( 15, 46, 52.00000000000000000, #50 ) ;
#39 = PLANE ( 'NONE',  #55 ) ;
#40 = FACE_OUTER_BOUND ( 'NONE', #83, .T. ) ;
#41 = ADVANCED_FACE ( 'NONE', ( #138, #54 ), #16, .T. ) ;
#42 = FACE_OUTER_BOUND ( 'NONE', #95, .T. ) ;
#43 = DIRECTION ( 'NONE',  ( -3.491481338843133355E-15, 1.224646799147353207E-16, -1.000000000000000000 ) ) ;
#44 = DATE_AND_TIME ( #80, #111 ) ;
#45 = ORIENTED_EDGE ( 'NONE', *, *, #201, .F. ) ;
#46 = COORDINATED_UNIVERSAL_TIME_OFFSET ( 1, 0, .AHEAD. ) ;
#47 = EDGE_LOOP ( 'NONE', ( #24 ) ) ;
#48 = APPROVAL_ROLE ( '' ) ;
#49 = AXIS2_PLACEMENT_3D ( 'NONE', #173, #43, #156 ) ;
#50 = COORDINATED_UNIVERSAL_TIME_OFFSET ( 1, 0, .AHEAD. ) ;
#51 = APPROVAL ( #167, 'UNSPECIFIED' ) ;
#52 = AXIS2_PLACEMENT_3D ( 'NONE', #72, #109, #76 ) ;
#53 = ADVANCED_FACE ( 'NONE', ( #42, #174 ), #123, .T. ) ;
#54 = FACE_OUTER_BOUND ( 'NONE', #47, .T. ) ;
#55 = AXIS2_PLACEMENT_3D ( 'NONE', #204, #15, #108 ) ;
#56 = DIRECTION ( 'NONE',  ( 4.275831445896958607E-31, 1.000000000000000000, 1.224646799147353207E-16 ) ) ;
#57 = ADVANCED_FACE ( 'NONE', ( #14, #208 ), #180, .T. ) ;
#58 = CC_DESIGN_PERSON_AND_ORGANIZATION_ASSIGNMENT ( #182, #31, ( #137 ) ) ;
#59 = VERTEX_POINT ( 'NONE', #1 ) ;
#60 = CARTESIAN_POINT ( 'NONE',  ( 5.237222008264700033E-15, -1.836970198721029934E-16, 1.500000000000000000 ) ) ;
#61 = ORIENTED_EDGE ( 'NONE', *, *, #92, .F. ) ;
#62 = SECURITY_CLASSIFICATION_LEVEL ( 'unclassified' ) ;
#63 = APPLICATION_PROTOCOL_DEFINITION ( 'international standard', 'config_control_design', 1994, #13 ) ;
#64 = CIRCLE ( 'NONE', #118, 0.4000000000000000222 ) ;
#65 = EDGE_LOOP ( 'NONE', ( #2 ) ) ;
#66 = ADVANCED_FACE ( 'NONE', ( #190 ), #39, .F. ) ;
#67 = PERSON_AND_ORGANIZATION_ROLE ( 'creator' ) ;
#68 = APPROVAL_PERSON_ORGANIZATION ( #29, #183, #25 ) ;
#69 = DIRECTION ( 'NONE',  ( 3.491481338843133355E-15, -1.224646799147353207E-16, 1.000000000000000000 ) ) ;
#70 = DIRECTION ( 'NONE',  ( 0.0000000000000000000, -1.000000000000000000, 0.0000000000000000000 ) ) ;
#71 = PRODUCT_DEFINITION_SHAPE ( 'NONE', 'NONE',  #120 ) ;
#72 = CARTESIAN_POINT ( 'NONE',  ( 3.566419185586816694E-16, -1.250931457503870495E-17, 0.1021463052346862493 ) ) ;
#73 = PRODUCT_RELATED_PRODUCT_CATEGORY ( 'detail', '', ( #178 ) ) ;
#74 = VERTEX_POINT ( 'NONE', #127 ) ;
#75 = EDGE_LOOP ( 'NONE', ( #93 ) ) ;
#76 = DIRECTION ( 'NONE',  ( 5.664499836433052448E-31, 1.000000000000000000, 1.594414959537508159E-16 ) ) ;
#77 =( GEOMETRIC_REPRESENTATION_CONTEXT ( 3 ) GLOBAL_UNCERTAINTY_ASSIGNED_CONTEXT ( ( #78 ) ) GLOBAL_UNIT_ASSIGNED_CONTEXT ( ( #81, #194, #104 ) ) REPRESENTATION_CONTEXT ( 'NONE', 'WORKASPACE' ) );
#78 = UNCERTAINTY_MEASURE_WITH_UNIT (LENGTH_MEASURE( 1.000000000000000082E-05 ), #81, 'distance_accuracy_value', 'NONE');
#79 = ORIENTED_EDGE ( 'NONE', *, *, #101, .F. ) ;
#80 = CALENDAR_DATE ( 2021, 7, 10 ) ;
#81 =( LENGTH_UNIT ( ) NAMED_UNIT ( * ) SI_UNIT ( .MILLI., .METRE. ) );
#82 = CIRCLE ( 'NONE', #32, 0.5000000000000000000 ) ;
#83 = EDGE_LOOP ( 'NONE', ( #45 ) ) ;
#84 = DATE_AND_TIME ( #166, #98 ) ;
#85 = DATE_AND_TIME ( #153, #38 ) ;
#86 = APPROVAL_ROLE ( '' ) ;
#87 = CC_DESIGN_PERSON_AND_ORGANIZATION_ASSIGNMENT ( #192, #67, ( #120 ) ) ;
#88 = CARTESIAN_POINT ( 'NONE',  ( 9.537249305844362239E-15, -3.345216743716746602E-16, 2.731576766497750164 ) ) ;
#89 = CARTESIAN_POINT ( 'NONE',  ( 5.237222008264700033E-15, -1.836970198721029934E-16, 1.500000000000000000 ) ) ;
#90 = DIRECTION ( 'NONE',  ( 0.0000000000000000000, 1.000000000000000000, 0.0000000000000000000 ) ) ;
#91 = DIRECTION ( 'NONE',  ( -3.491481338843133355E-15, 1.224646799147353207E-16, -1.000000000000000000 ) ) ;
#92 = EDGE_CURVE ( 'NONE', #59, #59, #185, .T. ) ;
#93 = ORIENTED_EDGE ( 'NONE', *, *, #107, .F. ) ;
#94 = CARTESIAN_POINT ( 'NONE',  ( 0.0000000000000000000, 0.0000000000000000000, 0.0000000000000000000 ) ) ;
#95 = EDGE_LOOP ( 'NONE', ( #79 ) ) ;
#96 = DATE_AND_TIME ( #177, #218 ) ;
#97 = AXIS2_PLACEMENT_3D ( 'NONE', #141, #171, #56 ) ;
#98 = LOCAL_TIME ( 15, 46, 52.00000000000000000, #103 ) ;
#99 = ORIENTED_EDGE ( 'NONE', *, *, #92, .T. ) ;
#100 = PERSON_AND_ORGANIZATION ( #199, #187 ) ;
#101 = EDGE_CURVE ( 'NONE', #74, #74, #136, .T. ) ;
#102 = ORIENTED_EDGE ( 'NONE', *, *, #101, .T. ) ;
#103 = COORDINATED_UNIVERSAL_TIME_OFFSET ( 1, 0, .AHEAD. ) ;
#104 =( NAMED_UNIT ( * ) SI_UNIT ( $, .STERADIAN. ) SOLID_ANGLE_UNIT ( ) );
#105 = DIRECTION ( 'NONE',  ( -3.491481338843133355E-15, 1.224646799147353207E-16, -1.000000000000000000 ) ) ;
#106 = CIRCLE ( 'NONE', #175, 0.1700000000000000122 ) ;
#107 = EDGE_CURVE ( 'NONE', #176, #176, #106, .T. ) ;
#108 = DIRECTION ( 'NONE',  ( -4.275831445896958607E-31, -1.000000000000000000, -1.224646799147353207E-16 ) ) ;
#109 = DIRECTION ( 'NONE',  ( -3.491481338843133355E-15, 1.224646799147353207E-16, -1.000000000000000000 ) ) ;
#110 = CARTESIAN_POINT ( 'NONE',  ( 9.537249305844362239E-15, -3.345216743716746602E-16, 2.731576766497750164 ) ) ;
#111 = LOCAL_TIME ( 15, 46, 52.00000000000000000, #7 ) ;
#112 = DIRECTION ( 'NONE',  ( 0.0000000000000000000, 1.000000000000000000, 0.0000000000000000000 ) ) ;
#113 = EDGE_LOOP ( 'NONE', ( #215 ) ) ;
#114 = APPLICATION_PROTOCOL_DEFINITION ( 'international standard', 'config_control_design', 1994, #27 ) ;
#115 = CALENDAR_DATE ( 2021, 7, 10 ) ;
#116 = AXIS2_PLACEMENT_3D ( 'NONE', #191, #161, #4 ) ;
#117 = EDGE_CURVE ( 'NONE', #165, #165, #195, .T. ) ;
#118 = AXIS2_PLACEMENT_3D ( 'NONE', #158, #139, #90 ) ;
#119 = PERSON_AND_ORGANIZATION_ROLE ( 'creator' ) ;
#120 = PRODUCT_DEFINITION ( 'UNKNOWN', '', #137, #206 ) ;
#121 = CC_DESIGN_PERSON_AND_ORGANIZATION_ASSIGNMENT ( #130, #193, ( #216 ) ) ;
#122 = LOCAL_TIME ( 15, 46, 52.00000000000000000, #46 ) ;
#123 = CYLINDRICAL_SURFACE ( 'NONE', #23, 0.1699999999999999012 ) ;
#124 = DIRECTION ( 'NONE',  ( 4.275831445896958607E-31, 1.000000000000000000, 1.224646799147353207E-16 ) ) ;
#125 = DIRECTION ( 'NONE',  ( -3.491481338843133355E-15, 1.224646799147353207E-16, -1.000000000000000000 ) ) ;
#126 = ADVANCED_FACE ( 'NONE', ( #209, #222 ), #157, .T. ) ;
#127 = CARTESIAN_POINT ( 'NONE',  ( 3.566419185586817680E-16, 0.1699999999999998179, 0.1021463052346862771 ) ) ;
#128 = FACE_OUTER_BOUND ( 'NONE', #212, .T. ) ;
#129 = APPROVAL_DATE_TIME ( #84, #183 ) ;
#130 = PERSON_AND_ORGANIZATION ( #199, #187 ) ;
#131 = MANIFOLD_SOLID_BREP ( 'Corps-Déplacer/Copier1[1]', #145 ) ;
#132 = APPROVAL_STATUS ( 'not_yet_approved' ) ;
#133 = DIRECTION ( 'NONE',  ( 0.0000000000000000000, 0.0000000000000000000, 1.000000000000000000 ) ) ;
#134 = DATE_TIME_ROLE ( 'creation_date' ) ;
#135 = CC_DESIGN_DATE_AND_TIME_ASSIGNMENT ( #44, #134, ( #120 ) ) ;
#136 = CIRCLE ( 'NONE', #52, 0.1699999999999998179 ) ;
#137 = PRODUCT_DEFINITION_FORMATION_WITH_SPECIFIED_SOURCE ( 'ANY', '', #178, .NOT_KNOWN. ) ;
#138 = FACE_OUTER_BOUND ( 'NONE', #159, .T. ) ;
#139 = DIRECTION ( 'NONE',  ( -3.491481338843133355E-15, 1.224646799147353207E-16, -1.000000000000000000 ) ) ;
#140 = CC_DESIGN_APPROVAL ( #8, ( #137 ) ) ;
#141 = CARTESIAN_POINT ( 'NONE',  ( 1.047444401652940007E-13, 2.999519565323660135E-33, 30.00000000000000000 ) ) ;
#142 = CARTESIAN_POINT ( 'NONE',  ( 0.0000000000000000000, 0.0000000000000000000, 0.0000000000000000000 ) ) ;
#143 = EDGE_LOOP ( 'NONE', ( #164 ) ) ;
#144 = CARTESIAN_POINT ( 'NONE',  ( 1.043952920314096810E-13, 0.4999999999999963363, 29.89999999999999858 ) ) ;
#145 = CLOSED_SHELL ( 'NONE', ( #66, #126, #41, #57, #33 ) ) ;
#146 = FACE_OUTER_BOUND ( 'NONE', #113, .T. ) ;
#147 = CARTESIAN_POINT ( 'NONE',  ( 1.047444401652940007E-13, 0.3999999999999963585, 30.00000000000000000 ) ) ;
#148 = COORDINATED_UNIVERSAL_TIME_OFFSET ( 1, 0, .AHEAD. ) ;
#149 = EDGE_LOOP ( 'NONE', ( #99 ) ) ;
#150 = MECHANICAL_CONTEXT ( 'NONE', #13, 'mechanical' ) ;
#151 = AXIS2_PLACEMENT_3D ( 'NONE', #88, #19, #154 ) ;
#152 = CC_DESIGN_PERSON_AND_ORGANIZATION_ASSIGNMENT ( #100, #119, ( #137 ) ) ;
#153 = CALENDAR_DATE ( 2021, 7, 10 ) ;
#154 = DIRECTION ( 'NONE',  ( 0.0000000000000000000, 1.000000000000000000, 0.0000000000000000000 ) ) ;
#155 = DIRECTION ( 'NONE',  ( -3.491481338843133355E-15, 1.224646799147353207E-16, -1.000000000000000000 ) ) ;
#156 = DIRECTION ( 'NONE',  ( 0.0000000000000000000, 1.000000000000000000, 0.0000000000000000000 ) ) ;
#157 = CONICAL_SURFACE ( 'NONE', #207, 0.4999999999999966693, 0.2617993877991426910 ) ;
#158 = CARTESIAN_POINT ( 'NONE',  ( 1.047444401652940007E-13, -3.673940397442059178E-15, 30.00000000000000000 ) ) ;
#159 = EDGE_LOOP ( 'NONE', ( #61 ) ) ;
#160 = DIRECTION ( 'NONE',  ( 0.0000000000000000000, 1.000000000000000000, 0.0000000000000000000 ) ) ;
#161 = DIRECTION ( 'NONE',  ( 3.491481338843133355E-15, -1.224646799147353207E-16, 1.000000000000000000 ) ) ;
#162 = APPROVAL_STATUS ( 'not_yet_approved' ) ;
#163 = CC_DESIGN_APPROVAL ( #183, ( #120 ) ) ;
#164 = ORIENTED_EDGE ( 'NONE', *, *, #107, .T. ) ;
#165 = VERTEX_POINT ( 'NONE', #179 ) ;
#166 = CALENDAR_DATE ( 2021, 7, 10 ) ;
#167 = APPROVAL_STATUS ( 'not_yet_approved' ) ;
#168 = AXIS2_PLACEMENT_3D ( 'NONE', #94, #105, #124 ) ;
#169 = DIRECTION ( 'NONE',  ( 4.275831445896958607E-31, 1.000000000000000000, 1.224646799147353207E-16 ) ) ;
#170 = CC_DESIGN_DATE_AND_TIME_ASSIGNMENT ( #186, #35, ( #216 ) ) ;
#171 = DIRECTION ( 'NONE',  ( -3.491481338843133355E-15, 1.224646799147353207E-16, -1.000000000000000000 ) ) ;
#172 = ADVANCED_BREP_SHAPE_REPRESENTATION ( '36940', ( #131, #203, #202 ), #77 ) ;
#173 = CARTESIAN_POINT ( 'NONE',  ( 1.047444401652940007E-13, -3.673940397442059178E-15, 30.00000000000000000 ) ) ;
#174 = FACE_OUTER_BOUND ( 'NONE', #28, .T. ) ;
#175 = AXIS2_PLACEMENT_3D ( 'NONE', #89, #91, #189 ) ;
#176 = VERTEX_POINT ( 'NONE', #20 ) ;
#177 = CALENDAR_DATE ( 2021, 7, 10 ) ;
#178 = PRODUCT ( '36940', '36940', '', ( #150 ) ) ;
#179 = CARTESIAN_POINT ( 'NONE',  ( 5.237222008264700033E-15, 0.1699999999999998179, 1.500000000000000000 ) ) ;
#180 = CONICAL_SURFACE ( 'NONE', #49, 0.4000000000000000222, 0.7853981633974512766 ) ;
#181 = PERSON_AND_ORGANIZATION ( #199, #187 ) ;
#182 = PERSON_AND_ORGANIZATION ( #199, #187 ) ;
#183 = APPROVAL ( #162, 'UNSPECIFIED' ) ;
#184 = APPROVAL_DATE_TIME ( #85, #51 ) ;
#185 = CIRCLE ( 'NONE', #151, 0.4999999999999966693 ) ;
#186 = DATE_AND_TIME ( #115, #122 ) ;
#187 = ORGANIZATION ( 'UNSPECIFIED', 'UNSPECIFIED', '' ) ;
#188 = DIRECTION ( 'NONE',  ( 3.491481338843133355E-15, -1.224646799147353207E-16, 1.000000000000000000 ) ) ;
#189 = DIRECTION ( 'NONE',  ( 0.0000000000000000000, 1.000000000000000000, 0.0000000000000000000 ) ) ;
#190 = FACE_OUTER_BOUND ( 'NONE', #143, .T. ) ;
#191 = CARTESIAN_POINT ( 'NONE',  ( 3.566419185586816694E-16, -1.250931457503870495E-17, 0.1021463052346862493 ) ) ;
#192 = PERSON_AND_ORGANIZATION ( #199, #187 ) ;
#193 = PERSON_AND_ORGANIZATION_ROLE ( 'classification_officer' ) ;
#194 =( NAMED_UNIT ( * ) PLANE_ANGLE_UNIT ( ) SI_UNIT ( $, .RADIAN. ) );
#195 = CIRCLE ( 'NONE', #6, 0.1700000000000000122 ) ;
#196 = ORIENTED_EDGE ( 'NONE', *, *, #201, .T. ) ;
#197 = PERSON_AND_ORGANIZATION ( #199, #187 ) ;
#198 = AXIS2_PLACEMENT_3D ( 'NONE', #221, #188, #3 ) ;
#199 = PERSON ( 'UNSPECIFIED', 'UNSPECIFIED', 'UNSPECIFIED', ('UNSPECIFIED'), ('UNSPECIFIED'), ('UNSPECIFIED') ) ;
#200 = PERSON_AND_ORGANIZATION ( #199, #187 ) ;
#201 = EDGE_CURVE ( 'NONE', #217, #217, #64, .T. ) ;
#202 = AXIS2_PLACEMENT_3D ( 'NONE', #26, #133, #9 ) ;
#203 = MANIFOLD_SOLID_BREP ( 'Corps-Déplacer/Copier1[2]', #211 ) ;
#204 = CARTESIAN_POINT ( 'NONE',  ( 5.237222008264700033E-15, 1.274795815262576298E-33, 1.500000000000000000 ) ) ;
#205 = CONICAL_SURFACE ( 'NONE', #116, 0.1699999999999998179, 1.029744258676649871 ) ;
#206 = DESIGN_CONTEXT ( 'detailed design', #27, 'design' ) ;
#207 = AXIS2_PLACEMENT_3D ( 'NONE', #110, #69, #70 ) ;
#208 = FACE_BOUND ( 'NONE', #21, .T. ) ;
#209 = FACE_BOUND ( 'NONE', #75, .T. ) ;
#210 = DIRECTION ( 'NONE',  ( -3.491481338843133355E-15, 1.224646799147353207E-16, -1.000000000000000000 ) ) ;
#211 = CLOSED_SHELL ( 'NONE', ( #18, #53, #22 ) ) ;
#212 = EDGE_LOOP ( 'NONE', ( #102 ) ) ;
#213 = PERSON_AND_ORGANIZATION_ROLE ( 'design_owner' ) ;
#214 = PLANE ( 'NONE',  #198 ) ;
#215 = ORIENTED_EDGE ( 'NONE', *, *, #117, .F. ) ;
#216 = SECURITY_CLASSIFICATION ( '', '', #62 ) ;
#217 = VERTEX_POINT ( 'NONE', #147 ) ;
#218 = LOCAL_TIME ( 15, 46, 52.00000000000000000, #148 ) ;
#219 = SHAPE_DEFINITION_REPRESENTATION ( #71, #172 ) ;
#220 = EDGE_CURVE ( 'NONE', #11, #11, #82, .T. ) ;
#221 = CARTESIAN_POINT ( 'NONE',  ( 5.237222008264700033E-15, 1.274795815262576298E-33, 1.500000000000000000 ) ) ;
#222 = FACE_OUTER_BOUND ( 'NONE', #149, .T. ) ;
#223 = CARTESIAN_POINT ( 'NONE',  ( 1.043952920314096810E-13, -3.661693929450586610E-15, 29.89999999999999858 ) ) ;
ENDSEC;
END-ISO-10303-21;
