ISO-10303-21;
HEADER;
FILE_DESCRIPTION (( 'STEP AP203' ),
    '1' );
FILE_NAME ('36939.step',
    '2021-10-07T13:46:51',
    ( '' ),
    ( '' ),
    'SwSTEP 2.0',
    'SolidWorks 2019',
    '' );
FILE_SCHEMA (( 'CONFIG_CONTROL_DESIGN' ));
ENDSEC;

DATA;
#1 = PERSON_AND_ORGANIZATION ( #173, #14 ) ;
#2 = APPROVAL_PERSON_ORGANIZATION ( #1, #31, #156 ) ;
#3 = LOCAL_TIME ( 15, 46, 51.00000000000000000, #105 ) ;
#4 =( NAMED_UNIT ( * ) SI_UNIT ( $, .STERADIAN. ) SOLID_ANGLE_UNIT ( ) );
#5 = DATE_AND_TIME ( #161, #142 ) ;
#6 =( LENGTH_UNIT ( ) NAMED_UNIT ( * ) SI_UNIT ( .MILLI., .METRE. ) );
#7 =( GEOMETRIC_REPRESENTATION_CONTEXT ( 3 ) GLOBAL_UNCERTAINTY_ASSIGNED_CONTEXT ( ( #104 ) ) GLOBAL_UNIT_ASSIGNED_CONTEXT ( ( #6, #88, #4 ) ) REPRESENTATION_CONTEXT ( 'NONE', 'WORKASPACE' ) );
#8 = DATE_AND_TIME ( #175, #3 ) ;
#9 = EDGE_LOOP ( 'NONE', ( #186 ) ) ;
#10 = ORIENTED_EDGE ( 'NONE', *, *, #20, .F. ) ;
#11 = AXIS2_PLACEMENT_3D ( 'NONE', #139, #64, #144 ) ;
#12 = EDGE_LOOP ( 'NONE', ( #48 ) ) ;
#13 = DIRECTION ( 'NONE',  ( 4.275831445896958607E-31, 1.000000000000000000, 1.224646799147353207E-16 ) ) ;
#14 = ORGANIZATION ( 'UNSPECIFIED', 'UNSPECIFIED', '' ) ;
#15 = DIRECTION ( 'NONE',  ( 4.275831445896957731E-31, 1.000000000000000000, 1.224646799147353207E-16 ) ) ;
#16 = FACE_OUTER_BOUND ( 'NONE', #9, .T. ) ;
#17 = EDGE_CURVE ( 'NONE', #127, #127, #154, .T. ) ;
#18 = PRODUCT_DEFINITION ( 'UNKNOWN', '', #172, #75 ) ;
#19 = DATE_TIME_ROLE ( 'classification_date' ) ;
#20 = EDGE_CURVE ( 'NONE', #159, #159, #54, .T. ) ;
#21 = APPROVAL_PERSON_ORGANIZATION ( #195, #201, #129 ) ;
#22 = CC_DESIGN_PERSON_AND_ORGANIZATION_ASSIGNMENT ( #44, #214, ( #172 ) ) ;
#23 = COORDINATED_UNIVERSAL_TIME_OFFSET ( 1, 0, .AHEAD. ) ;
#24 = CARTESIAN_POINT ( 'NONE',  ( 1.047444401652940007E-13, -3.673940397442059178E-15, 30.00000000000000000 ) ) ;
#25 = CC_DESIGN_PERSON_AND_ORGANIZATION_ASSIGNMENT ( #89, #43, ( #183 ) ) ;
#26 = APPROVAL ( #45, 'UNSPECIFIED' ) ;
#27 = EDGE_LOOP ( 'NONE', ( #166 ) ) ;
#28 = DIRECTION ( 'NONE',  ( -3.491481338843133355E-15, 1.224646799147353207E-16, -1.000000000000000000 ) ) ;
#29 = ADVANCED_FACE ( 'NONE', ( #50, #35 ), #219, .T. ) ;
#30 = EDGE_LOOP ( 'NONE', ( #79 ) ) ;
#31 = APPROVAL ( #57, 'UNSPECIFIED' ) ;
#32 = CLOSED_SHELL ( 'NONE', ( #63, #29, #126, #218, #56 ) ) ;
#33 = CARTESIAN_POINT ( 'NONE',  ( 0.0000000000000000000, 0.0000000000000000000, 0.0000000000000000000 ) ) ;
#34 = FACE_OUTER_BOUND ( 'NONE', #116, .T. ) ;
#35 = FACE_OUTER_BOUND ( 'NONE', #217, .T. ) ;
#36 = ADVANCED_FACE ( 'NONE', ( #191, #83 ), #137, .T. ) ;
#37 = APPROVAL_ROLE ( '' ) ;
#38 = CC_DESIGN_APPROVAL ( #201, ( #18 ) ) ;
#39 = VERTEX_POINT ( 'NONE', #60 ) ;
#40 = SECURITY_CLASSIFICATION_LEVEL ( 'unclassified' ) ;
#41 = ADVANCED_BREP_SHAPE_REPRESENTATION ( '36939', ( #199, #122, #188 ), #7 ) ;
#42 = FACE_OUTER_BOUND ( 'NONE', #135, .T. ) ;
#43 = PERSON_AND_ORGANIZATION_ROLE ( 'design_owner' ) ;
#44 = PERSON_AND_ORGANIZATION ( #173, #14 ) ;
#45 = APPROVAL_STATUS ( 'not_yet_approved' ) ;
#46 = EDGE_LOOP ( 'NONE', ( #115 ) ) ;
#47 = AXIS2_PLACEMENT_3D ( 'NONE', #119, #153, #120 ) ;
#48 = ORIENTED_EDGE ( 'NONE', *, *, #102, .T. ) ;
#49 = AXIS2_PLACEMENT_3D ( 'NONE', #148, #80, #189 ) ;
#50 = FACE_BOUND ( 'NONE', #46, .T. ) ;
#51 = EDGE_CURVE ( 'NONE', #62, #62, #194, .T. ) ;
#52 = CARTESIAN_POINT ( 'NONE',  ( 5.237222008264700033E-15, 1.237301820696030097E-33, 1.500000000000000000 ) ) ;
#53 = DIRECTION ( 'NONE',  ( 3.491481338843133355E-15, -1.224646799147353207E-16, 1.000000000000000000 ) ) ;
#54 = CIRCLE ( 'NONE', #49, 0.1650000000000000633 ) ;
#55 = DIRECTION ( 'NONE',  ( 0.0000000000000000000, -1.000000000000000000, 0.0000000000000000000 ) ) ;
#56 = ADVANCED_FACE ( 'NONE', ( #170 ), #85, .F. ) ;
#57 = APPROVAL_STATUS ( 'not_yet_approved' ) ;
#58 = DATE_TIME_ROLE ( 'creation_date' ) ;
#59 = AXIS2_PLACEMENT_3D ( 'NONE', #187, #28, #167 ) ;
#60 = CARTESIAN_POINT ( 'NONE',  ( 9.602401234595568931E-15, 0.4999999999999963363, 2.750237020535594823 ) ) ;
#61 = DIRECTION ( 'NONE',  ( 0.0000000000000000000, 0.0000000000000000000, 1.000000000000000000 ) ) ;
#62 = VERTEX_POINT ( 'NONE', #181 ) ;
#63 = ADVANCED_FACE ( 'NONE', ( #34 ), #174, .F. ) ;
#64 = DIRECTION ( 'NONE',  ( -3.491481338843133355E-15, 1.224646799147353207E-16, -1.000000000000000000 ) ) ;
#65 = ORIENTED_EDGE ( 'NONE', *, *, #17, .T. ) ;
#66 = CIRCLE ( 'NONE', #11, 0.4999999999999966693 ) ;
#67 = CC_DESIGN_DATE_AND_TIME_ASSIGNMENT ( #198, #58, ( #18 ) ) ;
#68 = CONICAL_SURFACE ( 'NONE', #223, 0.1649999999999998135, 1.029744258676649427 ) ;
#69 = DIRECTION ( 'NONE',  ( -3.491481338843133355E-15, 1.224646799147353207E-16, -1.000000000000000000 ) ) ;
#70 = CARTESIAN_POINT ( 'NONE',  ( 5.237222008264700033E-15, 1.237301820696030097E-33, 1.500000000000000000 ) ) ;
#71 = CARTESIAN_POINT ( 'NONE',  ( 1.043952920314096810E-13, -3.661693929450586610E-15, 29.89999999999999858 ) ) ;
#72 = AXIS2_PLACEMENT_3D ( 'NONE', #71, #193, #222 ) ;
#73 = MECHANICAL_CONTEXT ( 'NONE', #185, 'mechanical' ) ;
#74 = CC_DESIGN_APPROVAL ( #26, ( #172 ) ) ;
#75 = DESIGN_CONTEXT ( 'detailed design', #203, 'design' ) ;
#76 = FACE_OUTER_BOUND ( 'NONE', #12, .T. ) ;
#77 = APPROVAL_DATE_TIME ( #5, #201 ) ;
#78 = ORIENTED_EDGE ( 'NONE', *, *, #51, .F. ) ;
#79 = ORIENTED_EDGE ( 'NONE', *, *, #20, .T. ) ;
#80 = DIRECTION ( 'NONE',  ( -3.491481338843133355E-15, 1.224646799147353207E-16, -1.000000000000000000 ) ) ;
#81 = AXIS2_PLACEMENT_3D ( 'NONE', #33, #204, #15 ) ;
#82 = ADVANCED_FACE ( 'NONE', ( #202 ), #220, .T. ) ;
#83 = FACE_OUTER_BOUND ( 'NONE', #30, .T. ) ;
#84 = DIRECTION ( 'NONE',  ( -4.275831445896958607E-31, -1.000000000000000000, -1.224646799147353207E-16 ) ) ;
#85 = PLANE ( 'NONE',  #160 ) ;
#86 = ADVANCED_FACE ( 'NONE', ( #16 ), #68, .T. ) ;
#87 = APPROVAL_DATE_TIME ( #107, #31 ) ;
#88 =( NAMED_UNIT ( * ) PLANE_ANGLE_UNIT ( ) SI_UNIT ( $, .RADIAN. ) );
#89 = PERSON_AND_ORGANIZATION ( #173, #14 ) ;
#90 = CONICAL_SURFACE ( 'NONE', #123, 0.4000000000000000222, 0.7853981633974512766 ) ;
#91 = CYLINDRICAL_SURFACE ( 'NONE', #180, 0.4999999999999982792 ) ;
#92 = EDGE_CURVE ( 'NONE', #182, #182, #98, .T. ) ;
#93 = DIRECTION ( 'NONE',  ( 0.0000000000000000000, 1.000000000000000000, 0.0000000000000000000 ) ) ;
#94 = CARTESIAN_POINT ( 'NONE',  ( 5.237222008264700033E-15, 0.1649999999999998690, 1.500000000000000000 ) ) ;
#95 = AXIS2_PLACEMENT_3D ( 'NONE', #70, #150, #84 ) ;
#96 = ORIENTED_EDGE ( 'NONE', *, *, #92, .F. ) ;
#97 = EDGE_LOOP ( 'NONE', ( #96 ) ) ;
#98 = CIRCLE ( 'NONE', #47, 0.1649999999999998135 ) ;
#99 = CARTESIAN_POINT ( 'NONE',  ( 1.047444401652940007E-13, -3.673940397442059178E-15, 30.00000000000000000 ) ) ;
#100 = DIRECTION ( 'NONE',  ( -2.918075673313996955E-31, -1.000000000000000000, -8.213652821859891190E-17 ) ) ;
#101 = AXIS2_PLACEMENT_3D ( 'NONE', #52, #138, #152 ) ;
#102 = EDGE_CURVE ( 'NONE', #208, #208, #205, .T. ) ;
#103 = CARTESIAN_POINT ( 'NONE',  ( 1.047444401652940007E-13, 2.999519565323660135E-33, 30.00000000000000000 ) ) ;
#104 = UNCERTAINTY_MEASURE_WITH_UNIT (LENGTH_MEASURE( 1.000000000000000082E-05 ), #6, 'distance_accuracy_value', 'NONE');
#105 = COORDINATED_UNIVERSAL_TIME_OFFSET ( 1, 0, .AHEAD. ) ;
#106 = CC_DESIGN_PERSON_AND_ORGANIZATION_ASSIGNMENT ( #158, #206, ( #172 ) ) ;
#107 = DATE_AND_TIME ( #155, #147 ) ;
#108 = DIRECTION ( 'NONE',  ( -3.491481338843133355E-15, 1.224646799147353207E-16, -1.000000000000000000 ) ) ;
#109 = APPROVAL_STATUS ( 'not_yet_approved' ) ;
#110 = EDGE_CURVE ( 'NONE', #39, #39, #66, .T. ) ;
#111 = PERSON_AND_ORGANIZATION_ROLE ( 'creator' ) ;
#112 = CARTESIAN_POINT ( 'NONE',  ( 5.237222008264700033E-15, 0.1649999999999998690, 1.500000000000000000 ) ) ;
#113 = CC_DESIGN_PERSON_AND_ORGANIZATION_ASSIGNMENT ( #196, #111, ( #18 ) ) ;
#114 = ORIENTED_EDGE ( 'NONE', *, *, #110, .T. ) ;
#115 = ORIENTED_EDGE ( 'NONE', *, *, #17, .F. ) ;
#116 = EDGE_LOOP ( 'NONE', ( #65 ) ) ;
#117 = DIRECTION ( 'NONE',  ( 0.0000000000000000000, 1.000000000000000000, 0.0000000000000000000 ) ) ;
#118 = CARTESIAN_POINT ( 'NONE',  ( 3.461524503657794355E-16, -1.214139355812580608E-17, 0.09914200213954846297 ) ) ;
#119 = CARTESIAN_POINT ( 'NONE',  ( 3.461524503657794355E-16, -1.214139355812580608E-17, 0.09914200213954846297 ) ) ;
#120 = DIRECTION ( 'NONE',  ( 2.918075673313996955E-31, 1.000000000000000000, 8.213652821859891190E-17 ) ) ;
#121 = COORDINATED_UNIVERSAL_TIME_OFFSET ( 1, 0, .AHEAD. ) ;
#122 = MANIFOLD_SOLID_BREP ( 'Corps-Déplacer/Copier1[2]', #197 ) ;
#123 = AXIS2_PLACEMENT_3D ( 'NONE', #24, #108, #93 ) ;
#124 = APPROVAL_DATE_TIME ( #164, #26 ) ;
#125 = APPLICATION_PROTOCOL_DEFINITION ( 'international standard', 'config_control_design', 1994, #203 ) ;
#126 = ADVANCED_FACE ( 'NONE', ( #42, #76 ), #91, .T. ) ;
#127 = VERTEX_POINT ( 'NONE', #94 ) ;
#128 = CC_DESIGN_SECURITY_CLASSIFICATION ( #133, ( #172 ) ) ;
#129 = APPROVAL_ROLE ( '' ) ;
#130 = DIRECTION ( 'NONE',  ( -3.491481338843133355E-15, 1.224646799147353207E-16, -1.000000000000000000 ) ) ;
#131 = ORIENTED_EDGE ( 'NONE', *, *, #51, .T. ) ;
#132 = CC_DESIGN_DATE_AND_TIME_ASSIGNMENT ( #8, #19, ( #133 ) ) ;
#133 = SECURITY_CLASSIFICATION ( '', '', #40 ) ;
#134 = ORIENTED_EDGE ( 'NONE', *, *, #110, .F. ) ;
#135 = EDGE_LOOP ( 'NONE', ( #134 ) ) ;
#136 = LOCAL_TIME ( 15, 46, 51.00000000000000000, #23 ) ;
#137 = CYLINDRICAL_SURFACE ( 'NONE', #81, 0.1649999999999999523 ) ;
#138 = DIRECTION ( 'NONE',  ( 3.491481338843133355E-15, -1.224646799147353207E-16, 1.000000000000000000 ) ) ;
#139 = CARTESIAN_POINT ( 'NONE',  ( 9.602401234595568931E-15, -3.368068964095469809E-16, 2.750237020535594823 ) ) ;
#140 = LOCAL_TIME ( 15, 46, 51.00000000000000000, #121 ) ;
#141 = FACE_OUTER_BOUND ( 'NONE', #27, .T. ) ;
#142 = LOCAL_TIME ( 15, 46, 51.00000000000000000, #179 ) ;
#143 = CARTESIAN_POINT ( 'NONE',  ( 0.0000000000000000000, 0.0000000000000000000, 0.0000000000000000000 ) ) ;
#144 = DIRECTION ( 'NONE',  ( 0.0000000000000000000, 1.000000000000000000, 0.0000000000000000000 ) ) ;
#145 = PERSON_AND_ORGANIZATION ( #173, #14 ) ;
#146 = SHAPE_DEFINITION_REPRESENTATION ( #190, #41 ) ;
#147 = LOCAL_TIME ( 15, 46, 51.00000000000000000, #176 ) ;
#148 = CARTESIAN_POINT ( 'NONE',  ( 5.237222008264700033E-15, -1.836970198721029934E-16, 1.500000000000000000 ) ) ;
#149 = CC_DESIGN_PERSON_AND_ORGANIZATION_ASSIGNMENT ( #145, #215, ( #133 ) ) ;
#150 = DIRECTION ( 'NONE',  ( 3.491481338843133355E-15, -1.224646799147353207E-16, 1.000000000000000000 ) ) ;
#151 = PRODUCT_RELATED_PRODUCT_CATEGORY ( 'detail', '', ( #183 ) ) ;
#152 = DIRECTION ( 'NONE',  ( -4.275831445896958607E-31, -1.000000000000000000, -1.224646799147353207E-16 ) ) ;
#153 = DIRECTION ( 'NONE',  ( -3.491481338843133355E-15, 1.224646799147353207E-16, -1.000000000000000000 ) ) ;
#154 = CIRCLE ( 'NONE', #59, 0.1650000000000000633 ) ;
#155 = CALENDAR_DATE ( 2021, 7, 10 ) ;
#156 = APPROVAL_ROLE ( '' ) ;
#157 = CARTESIAN_POINT ( 'NONE',  ( 0.0000000000000000000, 0.0000000000000000000, 0.0000000000000000000 ) ) ;
#158 = PERSON_AND_ORGANIZATION ( #173, #14 ) ;
#159 = VERTEX_POINT ( 'NONE', #112 ) ;
#160 = AXIS2_PLACEMENT_3D ( 'NONE', #103, #171, #13 ) ;
#161 = CALENDAR_DATE ( 2021, 7, 10 ) ;
#162 = CALENDAR_DATE ( 2021, 7, 10 ) ;
#163 = CARTESIAN_POINT ( 'NONE',  ( 1.043952920314096810E-13, 0.4999999999999963363, 29.89999999999999858 ) ) ;
#164 = DATE_AND_TIME ( #213, #140 ) ;
#165 = APPROVAL_PERSON_ORGANIZATION ( #184, #26, #37 ) ;
#166 = ORIENTED_EDGE ( 'NONE', *, *, #102, .F. ) ;
#167 = DIRECTION ( 'NONE',  ( 0.0000000000000000000, 1.000000000000000000, 0.0000000000000000000 ) ) ;
#168 = CC_DESIGN_APPROVAL ( #31, ( #133 ) ) ;
#169 = EDGE_LOOP ( 'NONE', ( #78 ) ) ;
#170 = FACE_OUTER_BOUND ( 'NONE', #169, .T. ) ;
#171 = DIRECTION ( 'NONE',  ( -3.491481338843133355E-15, 1.224646799147353207E-16, -1.000000000000000000 ) ) ;
#172 = PRODUCT_DEFINITION_FORMATION_WITH_SPECIFIED_SOURCE ( 'ANY', '', #183, .NOT_KNOWN. ) ;
#173 = PERSON ( 'UNSPECIFIED', 'UNSPECIFIED', 'UNSPECIFIED', ('UNSPECIFIED'), ('UNSPECIFIED'), ('UNSPECIFIED') ) ;
#174 = PLANE ( 'NONE',  #95 ) ;
#175 = CALENDAR_DATE ( 2021, 7, 10 ) ;
#176 = COORDINATED_UNIVERSAL_TIME_OFFSET ( 1, 0, .AHEAD. ) ;
#177 = APPLICATION_PROTOCOL_DEFINITION ( 'international standard', 'config_control_design', 1994, #185 ) ;
#178 = DIRECTION ( 'NONE',  ( 1.000000000000000000, 0.0000000000000000000, 0.0000000000000000000 ) ) ;
#179 = COORDINATED_UNIVERSAL_TIME_OFFSET ( 1, 0, .AHEAD. ) ;
#180 = AXIS2_PLACEMENT_3D ( 'NONE', #143, #130, #211 ) ;
#181 = CARTESIAN_POINT ( 'NONE',  ( 1.047444401652940007E-13, 0.3999999999999963585, 30.00000000000000000 ) ) ;
#182 = VERTEX_POINT ( 'NONE', #210 ) ;
#183 = PRODUCT ( '36939', '36939', '', ( #73 ) ) ;
#184 = PERSON_AND_ORGANIZATION ( #173, #14 ) ;
#185 = APPLICATION_CONTEXT ( 'configuration controlled 3d designs of mechanical parts and assemblies' ) ;
#186 = ORIENTED_EDGE ( 'NONE', *, *, #92, .T. ) ;
#187 = CARTESIAN_POINT ( 'NONE',  ( 5.237222008264700033E-15, -1.836970198721029934E-16, 1.500000000000000000 ) ) ;
#188 = AXIS2_PLACEMENT_3D ( 'NONE', #157, #61, #178 ) ;
#189 = DIRECTION ( 'NONE',  ( 0.0000000000000000000, 1.000000000000000000, 0.0000000000000000000 ) ) ;
#190 = PRODUCT_DEFINITION_SHAPE ( 'NONE', 'NONE',  #18 ) ;
#191 = FACE_OUTER_BOUND ( 'NONE', #97, .T. ) ;
#192 = DIRECTION ( 'NONE',  ( 3.491481338843133355E-15, -1.224646799147353207E-16, 1.000000000000000000 ) ) ;
#193 = DIRECTION ( 'NONE',  ( -3.491481338843133355E-15, 1.224646799147353207E-16, -1.000000000000000000 ) ) ;
#194 = CIRCLE ( 'NONE', #212, 0.4000000000000000222 ) ;
#195 = PERSON_AND_ORGANIZATION ( #173, #14 ) ;
#196 = PERSON_AND_ORGANIZATION ( #173, #14 ) ;
#197 = CLOSED_SHELL ( 'NONE', ( #86, #36, #82 ) ) ;
#198 = DATE_AND_TIME ( #162, #136 ) ;
#199 = MANIFOLD_SOLID_BREP ( 'Corps-Déplacer/Copier1[1]', #32 ) ;
#200 = EDGE_LOOP ( 'NONE', ( #10 ) ) ;
#201 = APPROVAL ( #109, 'UNSPECIFIED' ) ;
#202 = FACE_OUTER_BOUND ( 'NONE', #200, .T. ) ;
#203 = APPLICATION_CONTEXT ( 'configuration controlled 3d designs of mechanical parts and assemblies' ) ;
#204 = DIRECTION ( 'NONE',  ( -3.491481338843133355E-15, 1.224646799147353207E-16, -1.000000000000000000 ) ) ;
#205 = CIRCLE ( 'NONE', #72, 0.5000000000000000000 ) ;
#206 = PERSON_AND_ORGANIZATION_ROLE ( 'design_supplier' ) ;
#207 = AXIS2_PLACEMENT_3D ( 'NONE', #221, #53, #55 ) ;
#208 = VERTEX_POINT ( 'NONE', #163 ) ;
#209 = FACE_BOUND ( 'NONE', #216, .T. ) ;
#210 = CARTESIAN_POINT ( 'NONE',  ( 3.461524503657794848E-16, 0.1649999999999998135, 0.09914200213954847685 ) ) ;
#211 = DIRECTION ( 'NONE',  ( 4.275831445896958607E-31, 1.000000000000000000, 1.224646799147353207E-16 ) ) ;
#212 = AXIS2_PLACEMENT_3D ( 'NONE', #99, #69, #117 ) ;
#213 = CALENDAR_DATE ( 2021, 7, 10 ) ;
#214 = PERSON_AND_ORGANIZATION_ROLE ( 'creator' ) ;
#215 = PERSON_AND_ORGANIZATION_ROLE ( 'classification_officer' ) ;
#216 = EDGE_LOOP ( 'NONE', ( #131 ) ) ;
#217 = EDGE_LOOP ( 'NONE', ( #114 ) ) ;
#218 = ADVANCED_FACE ( 'NONE', ( #141, #209 ), #90, .T. ) ;
#219 = CONICAL_SURFACE ( 'NONE', #207, 0.4999999999999966693, 0.2617993877991426910 ) ;
#220 = PLANE ( 'NONE',  #101 ) ;
#221 = CARTESIAN_POINT ( 'NONE',  ( 9.602401234595568931E-15, -3.368068964095469809E-16, 2.750237020535594823 ) ) ;
#222 = DIRECTION ( 'NONE',  ( 0.0000000000000000000, 1.000000000000000000, 0.0000000000000000000 ) ) ;
#223 = AXIS2_PLACEMENT_3D ( 'NONE', #118, #192, #100 ) ;
ENDSEC;
END-ISO-10303-21;
