ISO-10303-21;
HEADER;
FILE_DESCRIPTION (( 'STEP AP203' ),
    '1' );
FILE_NAME ('36938.step',
    '2021-10-07T13:46:51',
    ( '' ),
    ( '' ),
    'SwSTEP 2.0',
    'SolidWorks 2019',
    '' );
FILE_SCHEMA (( 'CONFIG_CONTROL_DESIGN' ));
ENDSEC;

DATA;
#1 = ORIENTED_EDGE ( 'NONE', *, *, #155, .T. ) ;
#2 = CARTESIAN_POINT ( 'NONE',  ( 5.237222008264700033E-15, 0.1599999999999998368, 1.500000000000000000 ) ) ;
#3 = DIRECTION ( 'NONE',  ( 3.009265538105059086E-31, 1.000000000000000000, 8.470329472543012019E-17 ) ) ;
#4 = CYLINDRICAL_SURFACE ( 'NONE', #213, 0.4999999999999982792 ) ;
#5 = FACE_OUTER_BOUND ( 'NONE', #113, .T. ) ;
#6 = CIRCLE ( 'NONE', #45, 0.1600000000000000311 ) ;
#7 = LOCAL_TIME ( 15, 46, 50.00000000000000000, #200 ) ;
#8 = CARTESIAN_POINT ( 'NONE',  ( 9.667553163346777202E-15, 0.4999999999999963363, 2.768897274573439482 ) ) ;
#9 = APPROVAL_ROLE ( '' ) ;
#10 = MECHANICAL_CONTEXT ( 'NONE', #83, 'mechanical' ) ;
#11 = CONICAL_SURFACE ( 'NONE', #137, 0.4000000000000000222, 0.7853981633974512766 ) ;
#12 = PERSON_AND_ORGANIZATION_ROLE ( 'design_supplier' ) ;
#13 = PRODUCT ( '36938', '36938', '', ( #10 ) ) ;
#14 = AXIS2_PLACEMENT_3D ( 'NONE', #181, #67, #86 ) ;
#15 = ORIENTED_EDGE ( 'NONE', *, *, #205, .F. ) ;
#16 = FACE_OUTER_BOUND ( 'NONE', #60, .T. ) ;
#17 = VERTEX_POINT ( 'NONE', #208 ) ;
#18 = CARTESIAN_POINT ( 'NONE',  ( 1.047444401652940007E-13, 0.3999999999999963585, 30.00000000000000000 ) ) ;
#19 = CARTESIAN_POINT ( 'NONE',  ( 1.043952920314096810E-13, 0.4999999999999963363, 29.89999999999999858 ) ) ;
#20 = CARTESIAN_POINT ( 'NONE',  ( 1.043952920314096810E-13, -3.661693929450586610E-15, 29.89999999999999858 ) ) ;
#21 = VERTEX_POINT ( 'NONE', #2 ) ;
#22 = DATE_AND_TIME ( #73, #84 ) ;
#23 = LOCAL_TIME ( 15, 46, 50.00000000000000000, #72 ) ;
#24 = APPLICATION_PROTOCOL_DEFINITION ( 'international standard', 'config_control_design', 1994, #83 ) ;
#25 = APPROVAL ( #197, 'UNSPECIFIED' ) ;
#26 = AXIS2_PLACEMENT_3D ( 'NONE', #138, #48, #69 ) ;
#27 = EDGE_CURVE ( 'NONE', #178, #178, #94, .T. ) ;
#28 = AXIS2_PLACEMENT_3D ( 'NONE', #123, #102, #3 ) ;
#29 = DIRECTION ( 'NONE',  ( 3.491481338843133355E-15, -1.224646799147353207E-16, 1.000000000000000000 ) ) ;
#30 = APPROVAL ( #215, 'UNSPECIFIED' ) ;
#31 = CARTESIAN_POINT ( 'NONE',  ( 1.047444401652940007E-13, 2.999519565323660135E-33, 30.00000000000000000 ) ) ;
#32 = DIRECTION ( 'NONE',  ( -3.491481338843133355E-15, 1.224646799147353207E-16, -1.000000000000000000 ) ) ;
#33 = DIRECTION ( 'NONE',  ( 4.275831445896958607E-31, 1.000000000000000000, 1.224646799147353207E-16 ) ) ;
#34 = CC_DESIGN_DATE_AND_TIME_ASSIGNMENT ( #38, #76, ( #127 ) ) ;
#35 = MANIFOLD_SOLID_BREP ( 'Corps-Déplacer/Copier1[1]', #126 ) ;
#36 = DIRECTION ( 'NONE',  ( 4.275831445896958607E-31, 1.000000000000000000, 1.224646799147353207E-16 ) ) ;
#37 = SECURITY_CLASSIFICATION_LEVEL ( 'unclassified' ) ;
#38 = DATE_AND_TIME ( #104, #95 ) ;
#39 = DATE_TIME_ROLE ( 'creation_date' ) ;
#40 = ADVANCED_FACE ( 'NONE', ( #171, #16 ), #88, .T. ) ;
#41 = APPROVAL_PERSON_ORGANIZATION ( #109, #25, #217 ) ;
#42 = EDGE_CURVE ( 'NONE', #17, #17, #6, .T. ) ;
#43 = SHAPE_DEFINITION_REPRESENTATION ( #157, #223 ) ;
#44 = CARTESIAN_POINT ( 'NONE',  ( 1.047444401652940007E-13, -3.673940397442059178E-15, 30.00000000000000000 ) ) ;
#45 = AXIS2_PLACEMENT_3D ( 'NONE', #121, #32, #51 ) ;
#46 = AXIS2_PLACEMENT_3D ( 'NONE', #164, #162, #163 ) ;
#47 = DIRECTION ( 'NONE',  ( -3.491481338843133355E-15, 1.224646799147353207E-16, -1.000000000000000000 ) ) ;
#48 = DIRECTION ( 'NONE',  ( 3.491481338843133355E-15, -1.224646799147353207E-16, 1.000000000000000000 ) ) ;
#49 = FACE_OUTER_BOUND ( 'NONE', #187, .T. ) ;
#50 = AXIS2_PLACEMENT_3D ( 'NONE', #57, #106, #96 ) ;
#51 = DIRECTION ( 'NONE',  ( 0.0000000000000000000, 1.000000000000000000, 0.0000000000000000000 ) ) ;
#52 = EDGE_CURVE ( 'NONE', #21, #21, #118, .T. ) ;
#53 = PLANE ( 'NONE',  #174 ) ;
#54 = PERSON_AND_ORGANIZATION ( #130, #114 ) ;
#55 = COORDINATED_UNIVERSAL_TIME_OFFSET ( 1, 0, .AHEAD. ) ;
#56 = APPROVAL_DATE_TIME ( #22, #30 ) ;
#57 = CARTESIAN_POINT ( 'NONE',  ( 0.0000000000000000000, 0.0000000000000000000, 0.0000000000000000000 ) ) ;
#58 =( NAMED_UNIT ( * ) PLANE_ANGLE_UNIT ( ) SI_UNIT ( $, .RADIAN. ) );
#59 = CC_DESIGN_APPROVAL ( #74, ( #127 ) ) ;
#60 = EDGE_LOOP ( 'NONE', ( #110 ) ) ;
#61 = ORIENTED_EDGE ( 'NONE', *, *, #42, .F. ) ;
#62 = ORIENTED_EDGE ( 'NONE', *, *, #27, .F. ) ;
#63 = AXIS2_PLACEMENT_3D ( 'NONE', #31, #47, #36 ) ;
#64 = ADVANCED_FACE ( 'NONE', ( #49, #192 ), #140, .T. ) ;
#65 = ORIENTED_EDGE ( 'NONE', *, *, #27, .T. ) ;
#66 = ADVANCED_FACE ( 'NONE', ( #85 ), #81, .F. ) ;
#67 = DIRECTION ( 'NONE',  ( 3.491481338843133355E-15, -1.224646799147353207E-16, 1.000000000000000000 ) ) ;
#68 = CARTESIAN_POINT ( 'NONE',  ( 3.356629821728770538E-16, 0.1599999999999998368, 0.09613769904441062109 ) ) ;
#69 = DIRECTION ( 'NONE',  ( 0.0000000000000000000, -1.000000000000000000, 0.0000000000000000000 ) ) ;
#70 = CARTESIAN_POINT ( 'NONE',  ( 9.667553163346777202E-15, -3.390921184474192524E-16, 2.768897274573439482 ) ) ;
#71 = CARTESIAN_POINT ( 'NONE',  ( 0.0000000000000000000, 0.0000000000000000000, 0.0000000000000000000 ) ) ;
#72 = COORDINATED_UNIVERSAL_TIME_OFFSET ( 1, 0, .AHEAD. ) ;
#73 = CALENDAR_DATE ( 2021, 7, 10 ) ;
#74 = APPROVAL ( #182, 'UNSPECIFIED' ) ;
#75 = DATE_AND_TIME ( #92, #7 ) ;
#76 = DATE_TIME_ROLE ( 'classification_date' ) ;
#77 = CIRCLE ( 'NONE', #202, 0.5000000000000000000 ) ;
#78 = PRODUCT_DEFINITION_FORMATION_WITH_SPECIFIED_SOURCE ( 'ANY', '', #13, .NOT_KNOWN. ) ;
#79 = ORIENTED_EDGE ( 'NONE', *, *, #52, .T. ) ;
#80 = EDGE_LOOP ( 'NONE', ( #15 ) ) ;
#81 = PLANE ( 'NONE',  #46 ) ;
#82 = DIRECTION ( 'NONE',  ( -3.491481338843133355E-15, 1.224646799147353207E-16, -1.000000000000000000 ) ) ;
#83 = APPLICATION_CONTEXT ( 'configuration controlled 3d designs of mechanical parts and assemblies' ) ;
#84 = LOCAL_TIME ( 15, 46, 50.00000000000000000, #131 ) ;
#85 = FACE_OUTER_BOUND ( 'NONE', #220, .T. ) ;
#86 = DIRECTION ( 'NONE',  ( -3.009265538105059086E-31, -1.000000000000000000, -8.470329472543012019E-17 ) ) ;
#87 = DIRECTION ( 'NONE',  ( -3.491481338843133355E-15, 1.224646799147353207E-16, -1.000000000000000000 ) ) ;
#88 = CONICAL_SURFACE ( 'NONE', #26, 0.4999999999999966693, 0.2617993877991427465 ) ;
#89 = CC_DESIGN_APPROVAL ( #25, ( #78 ) ) ;
#90 = PERSON_AND_ORGANIZATION ( #130, #114 ) ;
#91 = PERSON_AND_ORGANIZATION ( #130, #114 ) ;
#92 = CALENDAR_DATE ( 2021, 7, 10 ) ;
#93 = PERSON_AND_ORGANIZATION ( #130, #114 ) ;
#94 = CIRCLE ( 'NONE', #98, 0.4000000000000000222 ) ;
#95 = LOCAL_TIME ( 15, 46, 50.00000000000000000, #199 ) ;
#96 = DIRECTION ( 'NONE',  ( 1.000000000000000000, 0.0000000000000000000, 0.0000000000000000000 ) ) ;
#97 = CALENDAR_DATE ( 2021, 7, 10 ) ;
#98 = AXIS2_PLACEMENT_3D ( 'NONE', #44, #189, #99 ) ;
#99 = DIRECTION ( 'NONE',  ( 0.0000000000000000000, 1.000000000000000000, 0.0000000000000000000 ) ) ;
#100 = DIRECTION ( 'NONE',  ( -3.491481338843133355E-15, 1.224646799147353207E-16, -1.000000000000000000 ) ) ;
#101 = FACE_OUTER_BOUND ( 'NONE', #134, .T. ) ;
#102 = DIRECTION ( 'NONE',  ( -3.491481338843133355E-15, 1.224646799147353207E-16, -1.000000000000000000 ) ) ;
#103 = DIRECTION ( 'NONE',  ( -3.491481338843133355E-15, 1.224646799147353207E-16, -1.000000000000000000 ) ) ;
#104 = CALENDAR_DATE ( 2021, 7, 10 ) ;
#105 = LOCAL_TIME ( 15, 46, 50.00000000000000000, #55 ) ;
#106 = DIRECTION ( 'NONE',  ( 0.0000000000000000000, 0.0000000000000000000, 1.000000000000000000 ) ) ;
#107 =( LENGTH_UNIT ( ) NAMED_UNIT ( * ) SI_UNIT ( .MILLI., .METRE. ) );
#108 = ADVANCED_FACE ( 'NONE', ( #193 ), #158, .F. ) ;
#109 = PERSON_AND_ORGANIZATION ( #130, #114 ) ;
#110 = ORIENTED_EDGE ( 'NONE', *, *, #205, .T. ) ;
#111 = CC_DESIGN_PERSON_AND_ORGANIZATION_ASSIGNMENT ( #90, #149, ( #127 ) ) ;
#112 = CIRCLE ( 'NONE', #141, 0.4999999999999966693 ) ;
#113 = EDGE_LOOP ( 'NONE', ( #1 ) ) ;
#114 = ORGANIZATION ( 'UNSPECIFIED', 'UNSPECIFIED', '' ) ;
#115 = EDGE_LOOP ( 'NONE', ( #79 ) ) ;
#116 = MANIFOLD_SOLID_BREP ( 'Corps-Déplacer/Copier1[2]', #161 ) ;
#117 = EDGE_LOOP ( 'NONE', ( #203 ) ) ;
#118 = CIRCLE ( 'NONE', #154, 0.1600000000000000311 ) ;
#119 = DIRECTION ( 'NONE',  ( -4.275831445896958607E-31, -1.000000000000000000, -1.224646799147353207E-16 ) ) ;
#120 = DIRECTION ( 'NONE',  ( 0.0000000000000000000, 1.000000000000000000, 0.0000000000000000000 ) ) ;
#121 = CARTESIAN_POINT ( 'NONE',  ( 5.237222008264700033E-15, -1.836970198721029934E-16, 1.500000000000000000 ) ) ;
#122 =( GEOMETRIC_REPRESENTATION_CONTEXT ( 3 ) GLOBAL_UNCERTAINTY_ASSIGNED_CONTEXT ( ( #221 ) ) GLOBAL_UNIT_ASSIGNED_CONTEXT ( ( #107, #58, #147 ) ) REPRESENTATION_CONTEXT ( 'NONE', 'WORKASPACE' ) );
#123 = CARTESIAN_POINT ( 'NONE',  ( 3.356629821728770045E-16, -1.177347254121290104E-17, 0.09613769904441060721 ) ) ;
#124 = DIRECTION ( 'NONE',  ( 0.0000000000000000000, 1.000000000000000000, 0.0000000000000000000 ) ) ;
#125 = EDGE_CURVE ( 'NONE', #159, #159, #183, .T. ) ;
#126 = CLOSED_SHELL ( 'NONE', ( #66, #40, #176, #218, #108 ) ) ;
#127 = SECURITY_CLASSIFICATION ( '', '', #37 ) ;
#128 = CALENDAR_DATE ( 2021, 7, 10 ) ;
#129 = DATE_AND_TIME ( #128, #105 ) ;
#130 = PERSON ( 'UNSPECIFIED', 'UNSPECIFIED', 'UNSPECIFIED', ('UNSPECIFIED'), ('UNSPECIFIED'), ('UNSPECIFIED') ) ;
#131 = COORDINATED_UNIVERSAL_TIME_OFFSET ( 1, 0, .AHEAD. ) ;
#132 = PERSON_AND_ORGANIZATION_ROLE ( 'creator' ) ;
#133 = CONICAL_SURFACE ( 'NONE', #14, 0.1599999999999998368, 1.029744258676649649 ) ;
#134 = EDGE_LOOP ( 'NONE', ( #219 ) ) ;
#135 = APPROVAL_DATE_TIME ( #153, #74 ) ;
#136 = ORIENTED_EDGE ( 'NONE', *, *, #125, .F. ) ;
#137 = AXIS2_PLACEMENT_3D ( 'NONE', #142, #82, #124 ) ;
#138 = CARTESIAN_POINT ( 'NONE',  ( 9.667553163346777202E-15, -3.390921184474192524E-16, 2.768897274573439482 ) ) ;
#139 = ORIENTED_EDGE ( 'NONE', *, *, #125, .T. ) ;
#140 = CYLINDRICAL_SURFACE ( 'NONE', #188, 0.1599999999999999201 ) ;
#141 = AXIS2_PLACEMENT_3D ( 'NONE', #70, #103, #146 ) ;
#142 = CARTESIAN_POINT ( 'NONE',  ( 1.047444401652940007E-13, -3.673940397442059178E-15, 30.00000000000000000 ) ) ;
#143 = DIRECTION ( 'NONE',  ( -3.491481338843133355E-15, 1.224646799147353207E-16, -1.000000000000000000 ) ) ;
#144 = APPLICATION_CONTEXT ( 'configuration controlled 3d designs of mechanical parts and assemblies' ) ;
#145 = FACE_OUTER_BOUND ( 'NONE', #117, .T. ) ;
#146 = DIRECTION ( 'NONE',  ( 0.0000000000000000000, 1.000000000000000000, 0.0000000000000000000 ) ) ;
#147 =( NAMED_UNIT ( * ) SI_UNIT ( $, .STERADIAN. ) SOLID_ANGLE_UNIT ( ) );
#148 = PERSON_AND_ORGANIZATION_ROLE ( 'design_owner' ) ;
#149 = PERSON_AND_ORGANIZATION_ROLE ( 'classification_officer' ) ;
#150 = PRODUCT_DEFINITION ( 'UNKNOWN', '', #78, #211 ) ;
#151 = ADVANCED_FACE ( 'NONE', ( #101 ), #53, .T. ) ;
#152 = PERSON_AND_ORGANIZATION ( #130, #114 ) ;
#153 = DATE_AND_TIME ( #97, #23 ) ;
#154 = AXIS2_PLACEMENT_3D ( 'NONE', #180, #143, #120 ) ;
#155 = EDGE_CURVE ( 'NONE', #179, #179, #77, .T. ) ;
#156 = ORIENTED_EDGE ( 'NONE', *, *, #42, .T. ) ;
#157 = PRODUCT_DEFINITION_SHAPE ( 'NONE', 'NONE',  #150 ) ;
#158 = PLANE ( 'NONE',  #63 ) ;
#159 = VERTEX_POINT ( 'NONE', #68 ) ;
#160 = CC_DESIGN_PERSON_AND_ORGANIZATION_ASSIGNMENT ( #93, #132, ( #78 ) ) ;
#161 = CLOSED_SHELL ( 'NONE', ( #172, #64, #151 ) ) ;
#162 = DIRECTION ( 'NONE',  ( 3.491481338843133355E-15, -1.224646799147353207E-16, 1.000000000000000000 ) ) ;
#163 = DIRECTION ( 'NONE',  ( -4.275831445896958607E-31, -1.000000000000000000, -1.224646799147353207E-16 ) ) ;
#164 = CARTESIAN_POINT ( 'NONE',  ( 5.237222008264700033E-15, 1.199807826129483726E-33, 1.500000000000000000 ) ) ;
#165 = APPROVAL_ROLE ( '' ) ;
#166 = PERSON_AND_ORGANIZATION ( #130, #114 ) ;
#167 = CC_DESIGN_PERSON_AND_ORGANIZATION_ASSIGNMENT ( #54, #212, ( #150 ) ) ;
#168 = CC_DESIGN_APPROVAL ( #30, ( #150 ) ) ;
#169 = PERSON_AND_ORGANIZATION ( #130, #114 ) ;
#170 = EDGE_LOOP ( 'NONE', ( #62 ) ) ;
#171 = FACE_BOUND ( 'NONE', #222, .T. ) ;
#172 = ADVANCED_FACE ( 'NONE', ( #207 ), #133, .T. ) ;
#173 = EDGE_LOOP ( 'NONE', ( #65 ) ) ;
#174 = AXIS2_PLACEMENT_3D ( 'NONE', #206, #29, #119 ) ;
#175 = EDGE_LOOP ( 'NONE', ( #139 ) ) ;
#176 = ADVANCED_FACE ( 'NONE', ( #195, #5 ), #4, .T. ) ;
#177 = DIRECTION ( 'NONE',  ( 0.0000000000000000000, 1.000000000000000000, 0.0000000000000000000 ) ) ;
#178 = VERTEX_POINT ( 'NONE', #18 ) ;
#179 = VERTEX_POINT ( 'NONE', #19 ) ;
#180 = CARTESIAN_POINT ( 'NONE',  ( 5.237222008264700033E-15, -1.836970198721029934E-16, 1.500000000000000000 ) ) ;
#181 = CARTESIAN_POINT ( 'NONE',  ( 3.356629821728770045E-16, -1.177347254121290104E-17, 0.09613769904441060721 ) ) ;
#182 = APPROVAL_STATUS ( 'not_yet_approved' ) ;
#183 = CIRCLE ( 'NONE', #28, 0.1599999999999998368 ) ;
#184 = VERTEX_POINT ( 'NONE', #8 ) ;
#185 = PRODUCT_RELATED_PRODUCT_CATEGORY ( 'detail', '', ( #13 ) ) ;
#186 = APPROVAL_PERSON_ORGANIZATION ( #91, #30, #9 ) ;
#187 = EDGE_LOOP ( 'NONE', ( #136 ) ) ;
#188 = AXIS2_PLACEMENT_3D ( 'NONE', #204, #87, #194 ) ;
#189 = DIRECTION ( 'NONE',  ( -3.491481338843133355E-15, 1.224646799147353207E-16, -1.000000000000000000 ) ) ;
#190 = CC_DESIGN_PERSON_AND_ORGANIZATION_ASSIGNMENT ( #169, #148, ( #13 ) ) ;
#191 = CC_DESIGN_SECURITY_CLASSIFICATION ( #127, ( #78 ) ) ;
#192 = FACE_OUTER_BOUND ( 'NONE', #115, .T. ) ;
#193 = FACE_OUTER_BOUND ( 'NONE', #170, .T. ) ;
#194 = DIRECTION ( 'NONE',  ( 4.275831445896958607E-31, 1.000000000000000000, 1.224646799147353207E-16 ) ) ;
#195 = FACE_OUTER_BOUND ( 'NONE', #80, .T. ) ;
#196 = DIRECTION ( 'NONE',  ( -3.491481338843133355E-15, 1.224646799147353207E-16, -1.000000000000000000 ) ) ;
#197 = APPROVAL_STATUS ( 'not_yet_approved' ) ;
#198 = APPROVAL_DATE_TIME ( #129, #25 ) ;
#199 = COORDINATED_UNIVERSAL_TIME_OFFSET ( 1, 0, .AHEAD. ) ;
#200 = COORDINATED_UNIVERSAL_TIME_OFFSET ( 1, 0, .AHEAD. ) ;
#201 = CC_DESIGN_PERSON_AND_ORGANIZATION_ASSIGNMENT ( #166, #12, ( #78 ) ) ;
#202 = AXIS2_PLACEMENT_3D ( 'NONE', #20, #196, #177 ) ;
#203 = ORIENTED_EDGE ( 'NONE', *, *, #155, .F. ) ;
#204 = CARTESIAN_POINT ( 'NONE',  ( 0.0000000000000000000, 0.0000000000000000000, 0.0000000000000000000 ) ) ;
#205 = EDGE_CURVE ( 'NONE', #184, #184, #112, .T. ) ;
#206 = CARTESIAN_POINT ( 'NONE',  ( 5.237222008264700033E-15, 1.199807826129483726E-33, 1.500000000000000000 ) ) ;
#207 = FACE_OUTER_BOUND ( 'NONE', #175, .T. ) ;
#208 = CARTESIAN_POINT ( 'NONE',  ( 5.237222008264700033E-15, 0.1599999999999998368, 1.500000000000000000 ) ) ;
#209 = FACE_BOUND ( 'NONE', #173, .T. ) ;
#210 = CC_DESIGN_DATE_AND_TIME_ASSIGNMENT ( #75, #39, ( #150 ) ) ;
#211 = DESIGN_CONTEXT ( 'detailed design', #144, 'design' ) ;
#212 = PERSON_AND_ORGANIZATION_ROLE ( 'creator' ) ;
#213 = AXIS2_PLACEMENT_3D ( 'NONE', #71, #100, #33 ) ;
#214 = APPROVAL_PERSON_ORGANIZATION ( #152, #74, #165 ) ;
#215 = APPROVAL_STATUS ( 'not_yet_approved' ) ;
#216 = APPLICATION_PROTOCOL_DEFINITION ( 'international standard', 'config_control_design', 1994, #144 ) ;
#217 = APPROVAL_ROLE ( '' ) ;
#218 = ADVANCED_FACE ( 'NONE', ( #145, #209 ), #11, .T. ) ;
#219 = ORIENTED_EDGE ( 'NONE', *, *, #52, .F. ) ;
#220 = EDGE_LOOP ( 'NONE', ( #156 ) ) ;
#221 = UNCERTAINTY_MEASURE_WITH_UNIT (LENGTH_MEASURE( 1.000000000000000082E-05 ), #107, 'distance_accuracy_value', 'NONE');
#222 = EDGE_LOOP ( 'NONE', ( #61 ) ) ;
#223 = ADVANCED_BREP_SHAPE_REPRESENTATION ( '36938', ( #35, #116, #50 ), #122 ) ;
ENDSEC;
END-ISO-10303-21;
