ISO-10303-21;
HEADER;
FILE_DESCRIPTION (( 'STEP AP203' ),
    '1' );
FILE_NAME ('36937.step',
    '2021-10-07T13:46:50',
    ( '' ),
    ( '' ),
    'SwSTEP 2.0',
    'SolidWorks 2019',
    '' );
FILE_SCHEMA (( 'CONFIG_CONTROL_DESIGN' ));
ENDSEC;

DATA;
#1 = APPROVAL_STATUS ( 'not_yet_approved' ) ;
#2 = DESIGN_CONTEXT ( 'detailed design', #222, 'design' ) ;
#3 = PLANE ( 'NONE',  #178 ) ;
#4 = CC_DESIGN_PERSON_AND_ORGANIZATION_ASSIGNMENT ( #114, #117, ( #85 ) ) ;
#5 = APPROVAL_DATE_TIME ( #206, #147 ) ;
#6 = EDGE_LOOP ( 'NONE', ( #209 ) ) ;
#7 = ORGANIZATION ( 'UNSPECIFIED', 'UNSPECIFIED', '' ) ;
#8 = DIRECTION ( 'NONE',  ( -3.106338619979416777E-31, -1.000000000000000000, -8.743565907141176361E-17 ) ) ;
#9 = ADVANCED_FACE ( 'NONE', ( #88 ), #3, .T. ) ;
#10 = CARTESIAN_POINT ( 'NONE',  ( 5.237222008264700033E-15, 1.162313831562937012E-33, 1.500000000000000000 ) ) ;
#11 = CARTESIAN_POINT ( 'NONE',  ( 1.047444401652940007E-13, -3.673940397442059178E-15, 30.00000000000000000 ) ) ;
#12 = APPROVAL ( #1, 'UNSPECIFIED' ) ;
#13 = PLANE ( 'NONE',  #171 ) ;
#14 = APPROVAL_STATUS ( 'not_yet_approved' ) ;
#15 = PERSON_AND_ORGANIZATION_ROLE ( 'classification_officer' ) ;
#16 = DATE_AND_TIME ( #61, #30 ) ;
#17 = EDGE_LOOP ( 'NONE', ( #125 ) ) ;
#18 = ORIENTED_EDGE ( 'NONE', *, *, #78, .T. ) ;
#19 = DIRECTION ( 'NONE',  ( 3.491481338843133355E-15, -1.224646799147353207E-16, 1.000000000000000000 ) ) ;
#20 = EDGE_LOOP ( 'NONE', ( #135 ) ) ;
#21 = VERTEX_POINT ( 'NONE', #111 ) ;
#22 = DIRECTION ( 'NONE',  ( -3.491481338843133355E-15, 1.224646799147353207E-16, -1.000000000000000000 ) ) ;
#23 = CONICAL_SURFACE ( 'NONE', #186, 0.4000000000000000222, 0.7853981633974512766 ) ;
#24 = FACE_OUTER_BOUND ( 'NONE', #91, .T. ) ;
#25 = LOCAL_TIME ( 15, 46, 50.00000000000000000, #102 ) ;
#26 = CARTESIAN_POINT ( 'NONE',  ( 9.732705092097983894E-15, -3.413773404852915732E-16, 2.787557528611284585 ) ) ;
#27 = ADVANCED_FACE ( 'NONE', ( #137 ), #13, .F. ) ;
#28 = DIRECTION ( 'NONE',  ( 3.491481338843133355E-15, -1.224646799147353207E-16, 1.000000000000000000 ) ) ;
#29 = DIRECTION ( 'NONE',  ( 1.000000000000000000, 0.0000000000000000000, 0.0000000000000000000 ) ) ;
#30 = LOCAL_TIME ( 15, 46, 50.00000000000000000, #167 ) ;
#31 = SECURITY_CLASSIFICATION_LEVEL ( 'unclassified' ) ;
#32 = CALENDAR_DATE ( 2021, 7, 10 ) ;
#33 = CIRCLE ( 'NONE', #155, 0.1549999999999998046 ) ;
#34 = PERSON_AND_ORGANIZATION_ROLE ( 'creator' ) ;
#35 = LOCAL_TIME ( 15, 46, 50.00000000000000000, #190 ) ;
#36 = ORIENTED_EDGE ( 'NONE', *, *, #184, .F. ) ;
#37 = CARTESIAN_POINT ( 'NONE',  ( 1.043952920314096810E-13, -3.661693929450586610E-15, 29.89999999999999858 ) ) ;
#38 = CARTESIAN_POINT ( 'NONE',  ( 1.047444401652940007E-13, -3.673940397442059178E-15, 30.00000000000000000 ) ) ;
#39 = ADVANCED_FACE ( 'NONE', ( #129, #108 ), #72, .T. ) ;
#40 = VERTEX_POINT ( 'NONE', #181 ) ;
#41 = CLOSED_SHELL ( 'NONE', ( #159, #49, #9 ) ) ;
#42 = CYLINDRICAL_SURFACE ( 'NONE', #146, 0.4999999999999982792 ) ;
#43 = CC_DESIGN_PERSON_AND_ORGANIZATION_ASSIGNMENT ( #150, #220, ( #103 ) ) ;
#44 = DIRECTION ( 'NONE',  ( -3.491481338843133355E-15, 1.224646799147353207E-16, -1.000000000000000000 ) ) ;
#45 =( NAMED_UNIT ( * ) PLANE_ANGLE_UNIT ( ) SI_UNIT ( $, .RADIAN. ) );
#46 = ADVANCED_FACE ( 'NONE', ( #71, #161 ), #23, .T. ) ;
#47 = APPROVAL_ROLE ( '' ) ;
#48 = APPROVAL_STATUS ( 'not_yet_approved' ) ;
#49 = ADVANCED_FACE ( 'NONE', ( #127, #24 ), #77, .T. ) ;
#50 = CLOSED_SHELL ( 'NONE', ( #27, #39, #170, #46, #149 ) ) ;
#51 = ORIENTED_EDGE ( 'NONE', *, *, #67, .F. ) ;
#52 = ORIENTED_EDGE ( 'NONE', *, *, #112, .T. ) ;
#53 = APPROVAL_PERSON_ORGANIZATION ( #202, #147, #116 ) ;
#54 = FACE_OUTER_BOUND ( 'NONE', #105, .T. ) ;
#55 = VERTEX_POINT ( 'NONE', #219 ) ;
#56 = DIRECTION ( 'NONE',  ( 0.0000000000000000000, 1.000000000000000000, 0.0000000000000000000 ) ) ;
#57 = AXIS2_PLACEMENT_3D ( 'NONE', #74, #22, #94 ) ;
#58 = CARTESIAN_POINT ( 'NONE',  ( 9.732705092097983894E-15, -3.413773404852915732E-16, 2.787557528611284585 ) ) ;
#59 = CC_DESIGN_APPROVAL ( #120, ( #103 ) ) ;
#60 =( NAMED_UNIT ( * ) SI_UNIT ( $, .STERADIAN. ) SOLID_ANGLE_UNIT ( ) );
#61 = CALENDAR_DATE ( 2021, 7, 10 ) ;
#62 = CARTESIAN_POINT ( 'NONE',  ( 1.043952920314096810E-13, 0.4999999999999963363, 29.89999999999999858 ) ) ;
#63 = APPROVAL_PERSON_ORGANIZATION ( #81, #120, #47 ) ;
#64 = APPLICATION_PROTOCOL_DEFINITION ( 'international standard', 'config_control_design', 1994, #174 ) ;
#65 = PERSON ( 'UNSPECIFIED', 'UNSPECIFIED', 'UNSPECIFIED', ('UNSPECIFIED'), ('UNSPECIFIED'), ('UNSPECIFIED') ) ;
#66 = CC_DESIGN_PERSON_AND_ORGANIZATION_ASSIGNMENT ( #132, #187, ( #103 ) ) ;
#67 = EDGE_CURVE ( 'NONE', #21, #21, #154, .T. ) ;
#68 = DIRECTION ( 'NONE',  ( -4.275831445896958607E-31, -1.000000000000000000, -1.224646799147353207E-16 ) ) ;
#69 = CC_DESIGN_SECURITY_CLASSIFICATION ( #172, ( #103 ) ) ;
#70 = DIRECTION ( 'NONE',  ( -3.491481338843133355E-15, 1.224646799147353207E-16, -1.000000000000000000 ) ) ;
#71 = FACE_OUTER_BOUND ( 'NONE', #89, .T. ) ;
#72 = CONICAL_SURFACE ( 'NONE', #87, 0.4999999999999966693, 0.2617993877991427465 ) ;
#73 = AXIS2_PLACEMENT_3D ( 'NONE', #37, #107, #179 ) ;
#74 = CARTESIAN_POINT ( 'NONE',  ( 0.0000000000000000000, 0.0000000000000000000, 0.0000000000000000000 ) ) ;
#75 = ADVANCED_BREP_SHAPE_REPRESENTATION ( '36937', ( #185, #176, #195 ), #191 ) ;
#76 = PLANE ( 'NONE',  #98 ) ;
#77 = CYLINDRICAL_SURFACE ( 'NONE', #57, 0.1549999999999999156 ) ;
#78 = EDGE_CURVE ( 'NONE', #40, #40, #118, .T. ) ;
#79 = CIRCLE ( 'NONE', #73, 0.5000000000000000000 ) ;
#80 = APPROVAL_DATE_TIME ( #131, #12 ) ;
#81 = PERSON_AND_ORGANIZATION ( #65, #7 ) ;
#82 = CALENDAR_DATE ( 2021, 7, 10 ) ;
#83 = AXIS2_PLACEMENT_3D ( 'NONE', #130, #44, #144 ) ;
#84 = DIRECTION ( 'NONE',  ( 0.0000000000000000000, 0.0000000000000000000, 1.000000000000000000 ) ) ;
#85 = PRODUCT ( '36937', '36937', '', ( #188 ) ) ;
#86 = EDGE_LOOP ( 'NONE', ( #51 ) ) ;
#87 = AXIS2_PLACEMENT_3D ( 'NONE', #26, #212, #198 ) ;
#88 = FACE_OUTER_BOUND ( 'NONE', #86, .T. ) ;
#89 = EDGE_LOOP ( 'NONE', ( #36 ) ) ;
#90 = COORDINATED_UNIVERSAL_TIME_OFFSET ( 1, 0, .AHEAD. ) ;
#91 = EDGE_LOOP ( 'NONE', ( #173 ) ) ;
#92 = ORIENTED_EDGE ( 'NONE', *, *, #184, .T. ) ;
#93 = CARTESIAN_POINT ( 'NONE',  ( 9.732705092097983894E-15, 0.4999999999999963363, 2.787557528611284585 ) ) ;
#94 = DIRECTION ( 'NONE',  ( 4.275831445896958607E-31, 1.000000000000000000, 1.224646799147353207E-16 ) ) ;
#95 = VERTEX_POINT ( 'NONE', #93 ) ;
#96 = DIRECTION ( 'NONE',  ( -3.491481338843133355E-15, 1.224646799147353207E-16, -1.000000000000000000 ) ) ;
#97 = CARTESIAN_POINT ( 'NONE',  ( 3.251735139799745735E-16, -1.140555152429999755E-17, 0.09313339594927277920 ) ) ;
#98 = AXIS2_PLACEMENT_3D ( 'NONE', #182, #110, #183 ) ;
#99 = PRODUCT_RELATED_PRODUCT_CATEGORY ( 'detail', '', ( #85 ) ) ;
#100 = EDGE_CURVE ( 'NONE', #95, #95, #104, .T. ) ;
#101 = DATE_AND_TIME ( #32, #168 ) ;
#102 = COORDINATED_UNIVERSAL_TIME_OFFSET ( 1, 0, .AHEAD. ) ;
#103 = PRODUCT_DEFINITION_FORMATION_WITH_SPECIFIED_SOURCE ( 'ANY', '', #85, .NOT_KNOWN. ) ;
#104 = CIRCLE ( 'NONE', #138, 0.4999999999999966693 ) ;
#105 = EDGE_LOOP ( 'NONE', ( #192 ) ) ;
#106 = APPROVAL_PERSON_ORGANIZATION ( #199, #12, #148 ) ;
#107 = DIRECTION ( 'NONE',  ( -3.491481338843133355E-15, 1.224646799147353207E-16, -1.000000000000000000 ) ) ;
#108 = FACE_OUTER_BOUND ( 'NONE', #123, .T. ) ;
#109 = CC_DESIGN_DATE_AND_TIME_ASSIGNMENT ( #221, #223, ( #172 ) ) ;
#110 = DIRECTION ( 'NONE',  ( -3.491481338843133355E-15, 1.224646799147353207E-16, -1.000000000000000000 ) ) ;
#111 = CARTESIAN_POINT ( 'NONE',  ( 5.237222008264700033E-15, 0.1549999999999998324, 1.500000000000000000 ) ) ;
#112 = EDGE_CURVE ( 'NONE', #140, #140, #124, .T. ) ;
#113 = CARTESIAN_POINT ( 'NONE',  ( 3.251735139799745735E-16, -1.140555152429999755E-17, 0.09313339594927277920 ) ) ;
#114 = PERSON_AND_ORGANIZATION ( #65, #7 ) ;
#115 = CARTESIAN_POINT ( 'NONE',  ( 0.0000000000000000000, 0.0000000000000000000, 0.0000000000000000000 ) ) ;
#116 = APPROVAL_ROLE ( '' ) ;
#117 = PERSON_AND_ORGANIZATION_ROLE ( 'design_owner' ) ;
#118 = CIRCLE ( 'NONE', #200, 0.4000000000000000222 ) ;
#119 = CONICAL_SURFACE ( 'NONE', #160, 0.1549999999999998046, 1.029744258676649649 ) ;
#120 = APPROVAL ( #14, 'UNSPECIFIED' ) ;
#121 = ORIENTED_EDGE ( 'NONE', *, *, #112, .F. ) ;
#122 = EDGE_CURVE ( 'NONE', #55, #55, #33, .T. ) ;
#123 = EDGE_LOOP ( 'NONE', ( #177 ) ) ;
#124 = CIRCLE ( 'NONE', #83, 0.1550000000000000266 ) ;
#125 = ORIENTED_EDGE ( 'NONE', *, *, #122, .F. ) ;
#126 = FACE_OUTER_BOUND ( 'NONE', #6, .T. ) ;
#127 = FACE_OUTER_BOUND ( 'NONE', #17, .T. ) ;
#128 = DIRECTION ( 'NONE',  ( -3.491481338843133355E-15, 1.224646799147353207E-16, -1.000000000000000000 ) ) ;
#129 = FACE_BOUND ( 'NONE', #175, .T. ) ;
#130 = CARTESIAN_POINT ( 'NONE',  ( 5.237222008264700033E-15, -1.836970198721029934E-16, 1.500000000000000000 ) ) ;
#131 = DATE_AND_TIME ( #189, #35 ) ;
#132 = PERSON_AND_ORGANIZATION ( #65, #7 ) ;
#133 = VERTEX_POINT ( 'NONE', #62 ) ;
#134 = APPLICATION_PROTOCOL_DEFINITION ( 'international standard', 'config_control_design', 1994, #222 ) ;
#135 = ORIENTED_EDGE ( 'NONE', *, *, #100, .F. ) ;
#136 = CALENDAR_DATE ( 2021, 7, 10 ) ;
#137 = FACE_OUTER_BOUND ( 'NONE', #207, .T. ) ;
#138 = AXIS2_PLACEMENT_3D ( 'NONE', #58, #70, #56 ) ;
#139 = DIRECTION ( 'NONE',  ( -3.491481338843133355E-15, 1.224646799147353207E-16, -1.000000000000000000 ) ) ;
#140 = VERTEX_POINT ( 'NONE', #213 ) ;
#141 = CC_DESIGN_APPROVAL ( #12, ( #143 ) ) ;
#142 = DIRECTION ( 'NONE',  ( 0.0000000000000000000, 1.000000000000000000, 0.0000000000000000000 ) ) ;
#143 = PRODUCT_DEFINITION ( 'UNKNOWN', '', #103, #2 ) ;
#144 = DIRECTION ( 'NONE',  ( 0.0000000000000000000, 1.000000000000000000, 0.0000000000000000000 ) ) ;
#145 = CARTESIAN_POINT ( 'NONE',  ( 5.237222008264700033E-15, -1.836970198721029934E-16, 1.500000000000000000 ) ) ;
#146 = AXIS2_PLACEMENT_3D ( 'NONE', #157, #139, #194 ) ;
#147 = APPROVAL ( #48, 'UNSPECIFIED' ) ;
#148 = APPROVAL_ROLE ( '' ) ;
#149 = ADVANCED_FACE ( 'NONE', ( #54 ), #76, .F. ) ;
#150 = PERSON_AND_ORGANIZATION ( #65, #7 ) ;
#151 = COORDINATED_UNIVERSAL_TIME_OFFSET ( 1, 0, .AHEAD. ) ;
#152 = LOCAL_TIME ( 15, 46, 50.00000000000000000, #90 ) ;
#153 = EDGE_LOOP ( 'NONE', ( #18 ) ) ;
#154 = CIRCLE ( 'NONE', #218, 0.1550000000000000266 ) ;
#155 = AXIS2_PLACEMENT_3D ( 'NONE', #113, #128, #162 ) ;
#156 = CARTESIAN_POINT ( 'NONE',  ( 5.237222008264700033E-15, 1.162313831562937012E-33, 1.500000000000000000 ) ) ;
#157 = CARTESIAN_POINT ( 'NONE',  ( 0.0000000000000000000, 0.0000000000000000000, 0.0000000000000000000 ) ) ;
#158 = DIRECTION ( 'NONE',  ( 0.0000000000000000000, 1.000000000000000000, 0.0000000000000000000 ) ) ;
#159 = ADVANCED_FACE ( 'NONE', ( #126 ), #119, .T. ) ;
#160 = AXIS2_PLACEMENT_3D ( 'NONE', #97, #28, #8 ) ;
#161 = FACE_BOUND ( 'NONE', #153, .T. ) ;
#162 = DIRECTION ( 'NONE',  ( 3.106338619979416777E-31, 1.000000000000000000, 8.743565907141176361E-17 ) ) ;
#163 = FACE_OUTER_BOUND ( 'NONE', #208, .T. ) ;
#164 = DATE_TIME_ROLE ( 'creation_date' ) ;
#165 = PERSON_AND_ORGANIZATION ( #65, #7 ) ;
#166 = CC_DESIGN_PERSON_AND_ORGANIZATION_ASSIGNMENT ( #165, #15, ( #172 ) ) ;
#167 = COORDINATED_UNIVERSAL_TIME_OFFSET ( 1, 0, .AHEAD. ) ;
#168 = LOCAL_TIME ( 15, 46, 50.00000000000000000, #151 ) ;
#169 = APPROVAL_DATE_TIME ( #16, #120 ) ;
#170 = ADVANCED_FACE ( 'NONE', ( #197, #163 ), #42, .T. ) ;
#171 = AXIS2_PLACEMENT_3D ( 'NONE', #10, #180, #196 ) ;
#172 = SECURITY_CLASSIFICATION ( '', '', #31 ) ;
#173 = ORIENTED_EDGE ( 'NONE', *, *, #67, .T. ) ;
#174 = APPLICATION_CONTEXT ( 'configuration controlled 3d designs of mechanical parts and assemblies' ) ;
#175 = EDGE_LOOP ( 'NONE', ( #121 ) ) ;
#176 = MANIFOLD_SOLID_BREP ( 'Corps-Déplacer/Copier1[2]', #41 ) ;
#177 = ORIENTED_EDGE ( 'NONE', *, *, #100, .T. ) ;
#178 = AXIS2_PLACEMENT_3D ( 'NONE', #156, #19, #68 ) ;
#179 = DIRECTION ( 'NONE',  ( 0.0000000000000000000, 1.000000000000000000, 0.0000000000000000000 ) ) ;
#180 = DIRECTION ( 'NONE',  ( 3.491481338843133355E-15, -1.224646799147353207E-16, 1.000000000000000000 ) ) ;
#181 = CARTESIAN_POINT ( 'NONE',  ( 1.047444401652940007E-13, 0.3999999999999963585, 30.00000000000000000 ) ) ;
#182 = CARTESIAN_POINT ( 'NONE',  ( 1.047444401652940007E-13, 2.999519565323660135E-33, 30.00000000000000000 ) ) ;
#183 = DIRECTION ( 'NONE',  ( 4.275831445896958607E-31, 1.000000000000000000, 1.224646799147353207E-16 ) ) ;
#184 = EDGE_CURVE ( 'NONE', #133, #133, #79, .T. ) ;
#185 = MANIFOLD_SOLID_BREP ( 'Corps-Déplacer/Copier1[1]', #50 ) ;
#186 = AXIS2_PLACEMENT_3D ( 'NONE', #38, #96, #142 ) ;
#187 = PERSON_AND_ORGANIZATION_ROLE ( 'design_supplier' ) ;
#188 = MECHANICAL_CONTEXT ( 'NONE', #174, 'mechanical' ) ;
#189 = CALENDAR_DATE ( 2021, 7, 10 ) ;
#190 = COORDINATED_UNIVERSAL_TIME_OFFSET ( 1, 0, .AHEAD. ) ;
#191 =( GEOMETRIC_REPRESENTATION_CONTEXT ( 3 ) GLOBAL_UNCERTAINTY_ASSIGNED_CONTEXT ( ( #203 ) ) GLOBAL_UNIT_ASSIGNED_CONTEXT ( ( #201, #45, #60 ) ) REPRESENTATION_CONTEXT ( 'NONE', 'WORKASPACE' ) );
#192 = ORIENTED_EDGE ( 'NONE', *, *, #78, .F. ) ;
#193 = CC_DESIGN_PERSON_AND_ORGANIZATION_ASSIGNMENT ( #204, #34, ( #143 ) ) ;
#194 = DIRECTION ( 'NONE',  ( 4.275831445896958607E-31, 1.000000000000000000, 1.224646799147353207E-16 ) ) ;
#195 = AXIS2_PLACEMENT_3D ( 'NONE', #115, #84, #29 ) ;
#196 = DIRECTION ( 'NONE',  ( -4.275831445896958607E-31, -1.000000000000000000, -1.224646799147353207E-16 ) ) ;
#197 = FACE_OUTER_BOUND ( 'NONE', #20, .T. ) ;
#198 = DIRECTION ( 'NONE',  ( 0.0000000000000000000, -1.000000000000000000, 0.0000000000000000000 ) ) ;
#199 = PERSON_AND_ORGANIZATION ( #65, #7 ) ;
#200 = AXIS2_PLACEMENT_3D ( 'NONE', #11, #217, #215 ) ;
#201 =( LENGTH_UNIT ( ) NAMED_UNIT ( * ) SI_UNIT ( .MILLI., .METRE. ) );
#202 = PERSON_AND_ORGANIZATION ( #65, #7 ) ;
#203 = UNCERTAINTY_MEASURE_WITH_UNIT (LENGTH_MEASURE( 1.000000000000000082E-05 ), #201, 'distance_accuracy_value', 'NONE');
#204 = PERSON_AND_ORGANIZATION ( #65, #7 ) ;
#205 = CC_DESIGN_APPROVAL ( #147, ( #172 ) ) ;
#206 = DATE_AND_TIME ( #136, #152 ) ;
#207 = EDGE_LOOP ( 'NONE', ( #52 ) ) ;
#208 = EDGE_LOOP ( 'NONE', ( #92 ) ) ;
#209 = ORIENTED_EDGE ( 'NONE', *, *, #122, .T. ) ;
#210 = PRODUCT_DEFINITION_SHAPE ( 'NONE', 'NONE',  #143 ) ;
#211 = SHAPE_DEFINITION_REPRESENTATION ( #210, #75 ) ;
#212 = DIRECTION ( 'NONE',  ( 3.491481338843133355E-15, -1.224646799147353207E-16, 1.000000000000000000 ) ) ;
#213 = CARTESIAN_POINT ( 'NONE',  ( 5.237222008264700033E-15, 0.1549999999999998324, 1.500000000000000000 ) ) ;
#214 = DIRECTION ( 'NONE',  ( -3.491481338843133355E-15, 1.224646799147353207E-16, -1.000000000000000000 ) ) ;
#215 = DIRECTION ( 'NONE',  ( 0.0000000000000000000, 1.000000000000000000, 0.0000000000000000000 ) ) ;
#216 = CC_DESIGN_DATE_AND_TIME_ASSIGNMENT ( #101, #164, ( #143 ) ) ;
#217 = DIRECTION ( 'NONE',  ( -3.491481338843133355E-15, 1.224646799147353207E-16, -1.000000000000000000 ) ) ;
#218 = AXIS2_PLACEMENT_3D ( 'NONE', #145, #214, #158 ) ;
#219 = CARTESIAN_POINT ( 'NONE',  ( 3.251735139799746228E-16, 0.1549999999999998046, 0.09313339594927279308 ) ) ;
#220 = PERSON_AND_ORGANIZATION_ROLE ( 'creator' ) ;
#221 = DATE_AND_TIME ( #82, #25 ) ;
#222 = APPLICATION_CONTEXT ( 'configuration controlled 3d designs of mechanical parts and assemblies' ) ;
#223 = DATE_TIME_ROLE ( 'classification_date' ) ;
ENDSEC;
END-ISO-10303-21;
