ISO-10303-21;
HEADER;
FILE_DESCRIPTION (( 'STEP AP203' ),
    '1' );
FILE_NAME ('36936.step',
    '2021-10-07T13:46:49',
    ( '' ),
    ( '' ),
    'SwSTEP 2.0',
    'SolidWorks 2019',
    '' );
FILE_SCHEMA (( 'CONFIG_CONTROL_DESIGN' ));
ENDSEC;

DATA;
#1 = ORIENTED_EDGE ( 'NONE', *, *, #2, .T. ) ;
#2 = EDGE_CURVE ( 'NONE', #74, #74, #9, .T. ) ;
#3 = APPLICATION_CONTEXT ( 'configuration controlled 3d designs of mechanical parts and assemblies' ) ;
#4 = EDGE_LOOP ( 'NONE', ( #223 ) ) ;
#5 = DIRECTION ( 'NONE',  ( -3.491481338843133355E-15, 1.224646799147353207E-16, -1.000000000000000000 ) ) ;
#6 = CARTESIAN_POINT ( 'NONE',  ( 1.043952920314096810E-13, -3.661693929450586610E-15, 29.89999999999999858 ) ) ;
#7 = CC_DESIGN_PERSON_AND_ORGANIZATION_ASSIGNMENT ( #97, #47, ( #202 ) ) ;
#8 = VERTEX_POINT ( 'NONE', #75 ) ;
#9 = CIRCLE ( 'NONE', #192, 0.4000000000000000222 ) ;
#10 = CARTESIAN_POINT ( 'NONE',  ( 1.047444401652940007E-13, 0.3999999999999963585, 30.00000000000000000 ) ) ;
#11 = CARTESIAN_POINT ( 'NONE',  ( 5.237222008264700033E-15, -1.836970198721029934E-16, 1.500000000000000000 ) ) ;
#12 = PERSON_AND_ORGANIZATION ( #81, #76 ) ;
#13 = ADVANCED_FACE ( 'NONE', ( #203, #54 ), #28, .T. ) ;
#14 = PERSON_AND_ORGANIZATION_ROLE ( 'classification_officer' ) ;
#15 = APPROVAL_STATUS ( 'not_yet_approved' ) ;
#16 = ADVANCED_FACE ( 'NONE', ( #129 ), #126, .F. ) ;
#17 = APPROVAL_PERSON_ORGANIZATION ( #150, #70, #51 ) ;
#18 = ADVANCED_FACE ( 'NONE', ( #209 ), #110, .F. ) ;
#19 = ORIENTED_EDGE ( 'NONE', *, *, #104, .F. ) ;
#20 = SHAPE_DEFINITION_REPRESENTATION ( #69, #92 ) ;
#21 = EDGE_LOOP ( 'NONE', ( #156 ) ) ;
#22 = ADVANCED_FACE ( 'NONE', ( #178 ), #138, .T. ) ;
#23 = DIRECTION ( 'NONE',  ( -3.491481338843133355E-15, 1.224646799147353207E-16, -1.000000000000000000 ) ) ;
#24 = DIRECTION ( 'NONE',  ( 0.0000000000000000000, 1.000000000000000000, 0.0000000000000000000 ) ) ;
#25 = ADVANCED_FACE ( 'NONE', ( #41, #196 ), #130, .T. ) ;
#26 = DIRECTION ( 'NONE',  ( 4.275831445896958607E-31, 1.000000000000000000, 1.224646799147353207E-16 ) ) ;
#27 = PLANE ( 'NONE',  #212 ) ;
#28 = CONICAL_SURFACE ( 'NONE', #88, 0.4000000000000000222, 0.7853981633974512766 ) ;
#29 = DIRECTION ( 'NONE',  ( 3.491481338843133355E-15, -1.224646799147353207E-16, 1.000000000000000000 ) ) ;
#30 = PERSON_AND_ORGANIZATION ( #81, #76 ) ;
#31 = CALENDAR_DATE ( 2021, 7, 10 ) ;
#32 = CIRCLE ( 'NONE', #66, 0.1499999999999998557 ) ;
#33 = DATE_AND_TIME ( #101, #204 ) ;
#34 = EDGE_CURVE ( 'NONE', #145, #145, #155, .T. ) ;
#35 = APPROVAL_DATE_TIME ( #164, #195 ) ;
#36 = EDGE_LOOP ( 'NONE', ( #140 ) ) ;
#37 = EDGE_LOOP ( 'NONE', ( #170 ) ) ;
#38 = CLOSED_SHELL ( 'NONE', ( #22, #159, #153 ) ) ;
#39 = EDGE_LOOP ( 'NONE', ( #19 ) ) ;
#40 = DIRECTION ( 'NONE',  ( -3.491481338843133355E-15, 1.224646799147353207E-16, -1.000000000000000000 ) ) ;
#41 = FACE_BOUND ( 'NONE', #21, .T. ) ;
#42 = AXIS2_PLACEMENT_3D ( 'NONE', #111, #93, #163 ) ;
#43 = DIRECTION ( 'NONE',  ( -3.491481338843133355E-15, 1.224646799147353207E-16, -1.000000000000000000 ) ) ;
#44 = CYLINDRICAL_SURFACE ( 'NONE', #42, 0.4999999999999982792 ) ;
#45 = CARTESIAN_POINT ( 'NONE',  ( 5.237222008264700033E-15, 1.124819836996390982E-33, 1.500000000000000000 ) ) ;
#46 = CC_DESIGN_APPROVAL ( #70, ( #179 ) ) ;
#47 = PERSON_AND_ORGANIZATION_ROLE ( 'creator' ) ;
#48 = APPROVAL_STATUS ( 'not_yet_approved' ) ;
#49 = AXIS2_PLACEMENT_3D ( 'NONE', #173, #207, #143 ) ;
#50 =( LENGTH_UNIT ( ) NAMED_UNIT ( * ) SI_UNIT ( .MILLI., .METRE. ) );
#51 = APPROVAL_ROLE ( '' ) ;
#52 = ADVANCED_FACE ( 'NONE', ( #96, #175 ), #44, .T. ) ;
#53 = AXIS2_PLACEMENT_3D ( 'NONE', #11, #5, #24 ) ;
#54 = FACE_BOUND ( 'NONE', #118, .T. ) ;
#55 = DATE_AND_TIME ( #87, #141 ) ;
#56 = LOCAL_TIME ( 15, 46, 49.00000000000000000, #184 ) ;
#57 = CARTESIAN_POINT ( 'NONE',  ( 3.146840457870721917E-16, -1.103763050738709405E-17, 0.09012909285413495120 ) ) ;
#58 = DIRECTION ( 'NONE',  ( 3.491481338843133355E-15, -1.224646799147353207E-16, 1.000000000000000000 ) ) ;
#59 = UNCERTAINTY_MEASURE_WITH_UNIT (LENGTH_MEASURE( 1.000000000000000082E-05 ), #50, 'distance_accuracy_value', 'NONE');
#60 = FACE_OUTER_BOUND ( 'NONE', #154, .T. ) ;
#61 = CLOSED_SHELL ( 'NONE', ( #18, #25, #52, #13, #16 ) ) ;
#62 = DIRECTION ( 'NONE',  ( 0.0000000000000000000, 1.000000000000000000, 0.0000000000000000000 ) ) ;
#63 = CARTESIAN_POINT ( 'NONE',  ( 1.043952920314096810E-13, 0.4999999999999963363, 29.89999999999999858 ) ) ;
#64 = COORDINATED_UNIVERSAL_TIME_OFFSET ( 1, 0, .AHEAD. ) ;
#65 = CALENDAR_DATE ( 2021, 7, 10 ) ;
#66 = AXIS2_PLACEMENT_3D ( 'NONE', #94, #161, #190 ) ;
#67 = PERSON_AND_ORGANIZATION ( #81, #76 ) ;
#68 = DIRECTION ( 'NONE',  ( 0.0000000000000000000, 1.000000000000000000, 0.0000000000000000000 ) ) ;
#69 = PRODUCT_DEFINITION_SHAPE ( 'NONE', 'NONE',  #202 ) ;
#70 = APPROVAL ( #48, 'UNSPECIFIED' ) ;
#71 = ORIENTED_EDGE ( 'NONE', *, *, #217, .T. ) ;
#72 = EDGE_LOOP ( 'NONE', ( #188 ) ) ;
#73 = AXIS2_PLACEMENT_3D ( 'NONE', #91, #108, #206 ) ;
#74 = VERTEX_POINT ( 'NONE', #10 ) ;
#75 = CARTESIAN_POINT ( 'NONE',  ( 5.237222008264700033E-15, 0.1499999999999998834, 1.500000000000000000 ) ) ;
#76 = ORGANIZATION ( 'UNSPECIFIED', 'UNSPECIFIED', '' ) ;
#77 = FACE_OUTER_BOUND ( 'NONE', #107, .T. ) ;
#78 = DATE_TIME_ROLE ( 'creation_date' ) ;
#79 = LOCAL_TIME ( 15, 46, 49.00000000000000000, #64 ) ;
#80 = DATE_TIME_ROLE ( 'classification_date' ) ;
#81 = PERSON ( 'UNSPECIFIED', 'UNSPECIFIED', 'UNSPECIFIED', ('UNSPECIFIED'), ('UNSPECIFIED'), ('UNSPECIFIED') ) ;
#82 = DIRECTION ( 'NONE',  ( 0.0000000000000000000, 0.0000000000000000000, 1.000000000000000000 ) ) ;
#83 = CC_DESIGN_PERSON_AND_ORGANIZATION_ASSIGNMENT ( #198, #200, ( #106 ) ) ;
#84 = EDGE_LOOP ( 'NONE', ( #89 ) ) ;
#85 = APPROVAL_DATE_TIME ( #55, #70 ) ;
#86 = CARTESIAN_POINT ( 'NONE',  ( 1.047444401652940007E-13, -3.673940397442059178E-15, 30.00000000000000000 ) ) ;
#87 = CALENDAR_DATE ( 2021, 7, 10 ) ;
#88 = AXIS2_PLACEMENT_3D ( 'NONE', #119, #109, #112 ) ;
#89 = ORIENTED_EDGE ( 'NONE', *, *, #2, .F. ) ;
#90 = CARTESIAN_POINT ( 'NONE',  ( 5.237222008264700033E-15, -1.836970198721029934E-16, 1.500000000000000000 ) ) ;
#91 = CARTESIAN_POINT ( 'NONE',  ( 9.797857020849190586E-15, -3.436625625231638939E-16, 2.806217782649129244 ) ) ;
#92 = ADVANCED_BREP_SHAPE_REPRESENTATION ( '36936', ( #105, #100, #99 ), #189 ) ;
#93 = DIRECTION ( 'NONE',  ( -3.491481338843133355E-15, 1.224646799147353207E-16, -1.000000000000000000 ) ) ;
#94 = CARTESIAN_POINT ( 'NONE',  ( 3.146840457870721917E-16, -1.103763050738709405E-17, 0.09012909285413495120 ) ) ;
#95 = CC_DESIGN_APPROVAL ( #125, ( #202 ) ) ;
#96 = FACE_OUTER_BOUND ( 'NONE', #72, .T. ) ;
#97 = PERSON_AND_ORGANIZATION ( #81, #76 ) ;
#98 = PERSON_AND_ORGANIZATION ( #81, #76 ) ;
#99 = AXIS2_PLACEMENT_3D ( 'NONE', #168, #82, #197 ) ;
#100 = MANIFOLD_SOLID_BREP ( 'Corps-Déplacer/Copier1[2]', #38 ) ;
#101 = CALENDAR_DATE ( 2021, 7, 10 ) ;
#102 = PERSON_AND_ORGANIZATION_ROLE ( 'creator' ) ;
#103 = AXIS2_PLACEMENT_3D ( 'NONE', #191, #205, #176 ) ;
#104 = EDGE_CURVE ( 'NONE', #8, #8, #152, .T. ) ;
#105 = MANIFOLD_SOLID_BREP ( 'Corps-Déplacer/Copier1[1]', #61 ) ;
#106 = PRODUCT_DEFINITION_FORMATION_WITH_SPECIFIED_SOURCE ( 'ANY', '', #137, .NOT_KNOWN. ) ;
#107 = EDGE_LOOP ( 'NONE', ( #171 ) ) ;
#108 = DIRECTION ( 'NONE',  ( -3.491481338843133355E-15, 1.224646799147353207E-16, -1.000000000000000000 ) ) ;
#109 = DIRECTION ( 'NONE',  ( -3.491481338843133355E-15, 1.224646799147353207E-16, -1.000000000000000000 ) ) ;
#110 = PLANE ( 'NONE',  #103 ) ;
#111 = CARTESIAN_POINT ( 'NONE',  ( 0.0000000000000000000, 0.0000000000000000000, 0.0000000000000000000 ) ) ;
#112 = DIRECTION ( 'NONE',  ( 0.0000000000000000000, 1.000000000000000000, 0.0000000000000000000 ) ) ;
#113 = AXIS2_PLACEMENT_3D ( 'NONE', #142, #40, #26 ) ;
#114 = EDGE_CURVE ( 'NONE', #146, #146, #208, .T. ) ;
#115 = APPROVAL_STATUS ( 'not_yet_approved' ) ;
#116 = VERTEX_POINT ( 'NONE', #132 ) ;
#117 = DATE_AND_TIME ( #65, #79 ) ;
#118 = EDGE_LOOP ( 'NONE', ( #1 ) ) ;
#119 = CARTESIAN_POINT ( 'NONE',  ( 1.047444401652940007E-13, -3.673940397442059178E-15, 30.00000000000000000 ) ) ;
#120 = ORIENTED_EDGE ( 'NONE', *, *, #172, .T. ) ;
#121 = AXIS2_PLACEMENT_3D ( 'NONE', #90, #23, #62 ) ;
#122 = PRODUCT_RELATED_PRODUCT_CATEGORY ( 'detail', '', ( #137 ) ) ;
#123 = DIRECTION ( 'NONE',  ( 4.275831445896958607E-31, 1.000000000000000000, 1.224646799147353207E-16 ) ) ;
#124 = DIRECTION ( 'NONE',  ( -4.275831445896958607E-31, -1.000000000000000000, -1.224646799147353207E-16 ) ) ;
#125 = APPROVAL ( #15, 'UNSPECIFIED' ) ;
#126 = PLANE ( 'NONE',  #162 ) ;
#127 = DESIGN_CONTEXT ( 'detailed design', #3, 'design' ) ;
#128 = DIRECTION ( 'NONE',  ( -3.491481338843133355E-15, 1.224646799147353207E-16, -1.000000000000000000 ) ) ;
#129 = FACE_OUTER_BOUND ( 'NONE', #84, .T. ) ;
#130 = CONICAL_SURFACE ( 'NONE', #49, 0.4999999999999966693, 0.2617993877991427465 ) ;
#131 = CC_DESIGN_PERSON_AND_ORGANIZATION_ASSIGNMENT ( #148, #102, ( #106 ) ) ;
#132 = CARTESIAN_POINT ( 'NONE',  ( 3.146840457870722410E-16, 0.1499999999999998557, 0.09012909285413496507 ) ) ;
#133 =( NAMED_UNIT ( * ) SI_UNIT ( $, .STERADIAN. ) SOLID_ANGLE_UNIT ( ) );
#134 = COORDINATED_UNIVERSAL_TIME_OFFSET ( 1, 0, .AHEAD. ) ;
#135 = LOCAL_TIME ( 15, 46, 49.00000000000000000, #216 ) ;
#136 = APPROVAL_DATE_TIME ( #117, #125 ) ;
#137 = PRODUCT ( '36936', '36936', '', ( #151 ) ) ;
#138 = CONICAL_SURFACE ( 'NONE', #222, 0.1499999999999998557, 1.029744258676649649 ) ;
#139 = EDGE_LOOP ( 'NONE', ( #120 ) ) ;
#140 = ORIENTED_EDGE ( 'NONE', *, *, #114, .T. ) ;
#141 = LOCAL_TIME ( 15, 46, 49.00000000000000000, #214 ) ;
#142 = CARTESIAN_POINT ( 'NONE',  ( 0.0000000000000000000, 0.0000000000000000000, 0.0000000000000000000 ) ) ;
#143 = DIRECTION ( 'NONE',  ( 0.0000000000000000000, -1.000000000000000000, 0.0000000000000000000 ) ) ;
#144 = CC_DESIGN_DATE_AND_TIME_ASSIGNMENT ( #182, #78, ( #202 ) ) ;
#145 = VERTEX_POINT ( 'NONE', #193 ) ;
#146 = VERTEX_POINT ( 'NONE', #147 ) ;
#147 = CARTESIAN_POINT ( 'NONE',  ( 9.797857020849190586E-15, 0.4999999999999963363, 2.806217782649129244 ) ) ;
#148 = PERSON_AND_ORGANIZATION ( #81, #76 ) ;
#149 = APPLICATION_PROTOCOL_DEFINITION ( 'international standard', 'config_control_design', 1994, #215 ) ;
#150 = PERSON_AND_ORGANIZATION ( #81, #76 ) ;
#151 = MECHANICAL_CONTEXT ( 'NONE', #215, 'mechanical' ) ;
#152 = CIRCLE ( 'NONE', #53, 0.1500000000000000777 ) ;
#153 = ADVANCED_FACE ( 'NONE', ( #157 ), #27, .T. ) ;
#154 = EDGE_LOOP ( 'NONE', ( #186 ) ) ;
#155 = CIRCLE ( 'NONE', #121, 0.1500000000000000777 ) ;
#156 = ORIENTED_EDGE ( 'NONE', *, *, #34, .F. ) ;
#157 = FACE_OUTER_BOUND ( 'NONE', #39, .T. ) ;
#158 = CYLINDRICAL_SURFACE ( 'NONE', #113, 0.1499999999999999667 ) ;
#159 = ADVANCED_FACE ( 'NONE', ( #60, #77 ), #158, .T. ) ;
#160 = DIRECTION ( 'NONE',  ( 0.0000000000000000000, 1.000000000000000000, 0.0000000000000000000 ) ) ;
#161 = DIRECTION ( 'NONE',  ( -3.491481338843133355E-15, 1.224646799147353207E-16, -1.000000000000000000 ) ) ;
#162 = AXIS2_PLACEMENT_3D ( 'NONE', #177, #128, #123 ) ;
#163 = DIRECTION ( 'NONE',  ( 4.275831445896958607E-31, 1.000000000000000000, 1.224646799147353207E-16 ) ) ;
#164 = DATE_AND_TIME ( #31, #135 ) ;
#165 = CC_DESIGN_DATE_AND_TIME_ASSIGNMENT ( #33, #80, ( #179 ) ) ;
#166 = APPROVAL_PERSON_ORGANIZATION ( #67, #195, #181 ) ;
#167 = APPLICATION_PROTOCOL_DEFINITION ( 'international standard', 'config_control_design', 1994, #3 ) ;
#168 = CARTESIAN_POINT ( 'NONE',  ( 0.0000000000000000000, 0.0000000000000000000, 0.0000000000000000000 ) ) ;
#169 = CC_DESIGN_SECURITY_CLASSIFICATION ( #179, ( #106 ) ) ;
#170 = ORIENTED_EDGE ( 'NONE', *, *, #34, .T. ) ;
#171 = ORIENTED_EDGE ( 'NONE', *, *, #104, .T. ) ;
#172 = EDGE_CURVE ( 'NONE', #210, #210, #187, .T. ) ;
#173 = CARTESIAN_POINT ( 'NONE',  ( 9.797857020849190586E-15, -3.436625625231638939E-16, 2.806217782649129244 ) ) ;
#174 = AXIS2_PLACEMENT_3D ( 'NONE', #6, #43, #160 ) ;
#175 = FACE_OUTER_BOUND ( 'NONE', #139, .T. ) ;
#176 = DIRECTION ( 'NONE',  ( -4.275831445896958607E-31, -1.000000000000000000, -1.224646799147353207E-16 ) ) ;
#177 = CARTESIAN_POINT ( 'NONE',  ( 1.047444401652940007E-13, 2.999519565323660135E-33, 30.00000000000000000 ) ) ;
#178 = FACE_OUTER_BOUND ( 'NONE', #220, .T. ) ;
#179 = SECURITY_CLASSIFICATION ( '', '', #211 ) ;
#180 = PERSON_AND_ORGANIZATION_ROLE ( 'design_owner' ) ;
#181 = APPROVAL_ROLE ( '' ) ;
#182 = DATE_AND_TIME ( #218, #56 ) ;
#183 =( NAMED_UNIT ( * ) PLANE_ANGLE_UNIT ( ) SI_UNIT ( $, .RADIAN. ) );
#184 = COORDINATED_UNIVERSAL_TIME_OFFSET ( 1, 0, .AHEAD. ) ;
#185 = CC_DESIGN_PERSON_AND_ORGANIZATION_ASSIGNMENT ( #12, #180, ( #137 ) ) ;
#186 = ORIENTED_EDGE ( 'NONE', *, *, #217, .F. ) ;
#187 = CIRCLE ( 'NONE', #174, 0.5000000000000000000 ) ;
#188 = ORIENTED_EDGE ( 'NONE', *, *, #114, .F. ) ;
#189 =( GEOMETRIC_REPRESENTATION_CONTEXT ( 3 ) GLOBAL_UNCERTAINTY_ASSIGNED_CONTEXT ( ( #59 ) ) GLOBAL_UNIT_ASSIGNED_CONTEXT ( ( #50, #183, #133 ) ) REPRESENTATION_CONTEXT ( 'NONE', 'WORKASPACE' ) );
#190 = DIRECTION ( 'NONE',  ( 3.209883240645396300E-31, 1.000000000000000000, 9.035018104045879322E-17 ) ) ;
#191 = CARTESIAN_POINT ( 'NONE',  ( 5.237222008264700033E-15, 1.124819836996390982E-33, 1.500000000000000000 ) ) ;
#192 = AXIS2_PLACEMENT_3D ( 'NONE', #86, #221, #68 ) ;
#193 = CARTESIAN_POINT ( 'NONE',  ( 5.237222008264700033E-15, 0.1499999999999998834, 1.500000000000000000 ) ) ;
#194 = DIRECTION ( 'NONE',  ( -3.209883240645396300E-31, -1.000000000000000000, -9.035018104045879322E-17 ) ) ;
#195 = APPROVAL ( #115, 'UNSPECIFIED' ) ;
#196 = FACE_OUTER_BOUND ( 'NONE', #36, .T. ) ;
#197 = DIRECTION ( 'NONE',  ( 1.000000000000000000, 0.0000000000000000000, 0.0000000000000000000 ) ) ;
#198 = PERSON_AND_ORGANIZATION ( #81, #76 ) ;
#199 = APPROVAL_PERSON_ORGANIZATION ( #30, #125, #213 ) ;
#200 = PERSON_AND_ORGANIZATION_ROLE ( 'design_supplier' ) ;
#201 = CC_DESIGN_PERSON_AND_ORGANIZATION_ASSIGNMENT ( #98, #14, ( #179 ) ) ;
#202 = PRODUCT_DEFINITION ( 'UNKNOWN', '', #106, #127 ) ;
#203 = FACE_OUTER_BOUND ( 'NONE', #4, .T. ) ;
#204 = LOCAL_TIME ( 15, 46, 49.00000000000000000, #134 ) ;
#205 = DIRECTION ( 'NONE',  ( 3.491481338843133355E-15, -1.224646799147353207E-16, 1.000000000000000000 ) ) ;
#206 = DIRECTION ( 'NONE',  ( 0.0000000000000000000, 1.000000000000000000, 0.0000000000000000000 ) ) ;
#207 = DIRECTION ( 'NONE',  ( 3.491481338843133355E-15, -1.224646799147353207E-16, 1.000000000000000000 ) ) ;
#208 = CIRCLE ( 'NONE', #73, 0.4999999999999966693 ) ;
#209 = FACE_OUTER_BOUND ( 'NONE', #37, .T. ) ;
#210 = VERTEX_POINT ( 'NONE', #63 ) ;
#211 = SECURITY_CLASSIFICATION_LEVEL ( 'unclassified' ) ;
#212 = AXIS2_PLACEMENT_3D ( 'NONE', #45, #58, #124 ) ;
#213 = APPROVAL_ROLE ( '' ) ;
#214 = COORDINATED_UNIVERSAL_TIME_OFFSET ( 1, 0, .AHEAD. ) ;
#215 = APPLICATION_CONTEXT ( 'configuration controlled 3d designs of mechanical parts and assemblies' ) ;
#216 = COORDINATED_UNIVERSAL_TIME_OFFSET ( 1, 0, .AHEAD. ) ;
#217 = EDGE_CURVE ( 'NONE', #116, #116, #32, .T. ) ;
#218 = CALENDAR_DATE ( 2021, 7, 10 ) ;
#219 = CC_DESIGN_APPROVAL ( #195, ( #106 ) ) ;
#220 = EDGE_LOOP ( 'NONE', ( #71 ) ) ;
#221 = DIRECTION ( 'NONE',  ( -3.491481338843133355E-15, 1.224646799147353207E-16, -1.000000000000000000 ) ) ;
#222 = AXIS2_PLACEMENT_3D ( 'NONE', #57, #29, #194 ) ;
#223 = ORIENTED_EDGE ( 'NONE', *, *, #172, .F. ) ;
ENDSEC;
END-ISO-10303-21;
