ISO-10303-21;
HEADER;
FILE_DESCRIPTION (( 'STEP AP203' ),
    '1' );
FILE_NAME ('36934.step',
    '2021-10-07T13:46:48',
    ( '' ),
    ( '' ),
    'SwSTEP 2.0',
    'SolidWorks 2019',
    '' );
FILE_SCHEMA (( 'CONFIG_CONTROL_DESIGN' ));
ENDSEC;

DATA;
#1 = UNCERTAINTY_MEASURE_WITH_UNIT (LENGTH_MEASURE( 1.000000000000000082E-05 ), #193, 'distance_accuracy_value', 'NONE');
#2 = VERTEX_POINT ( 'NONE', #176 ) ;
#3 = CALENDAR_DATE ( 2021, 7, 10 ) ;
#4 = DIRECTION ( 'NONE',  ( -3.439160614977210071E-31, -1.000000000000000000, -9.680376540049155713E-17 ) ) ;
#5 = CARTESIAN_POINT ( 'NONE',  ( 1.043952920314096810E-13, -3.661693929450586610E-15, 29.89999999999999858 ) ) ;
#6 = CIRCLE ( 'NONE', #27, 0.1400000000000000133 ) ;
#7 = CARTESIAN_POINT ( 'NONE',  ( 2.937051094012674282E-16, -1.030178847356129015E-17, 0.08412048666385930906 ) ) ;
#8 = DIRECTION ( 'NONE',  ( 3.439160614977210071E-31, 1.000000000000000000, 9.680376540049155713E-17 ) ) ;
#9 = DIRECTION ( 'NONE',  ( 0.0000000000000000000, 1.000000000000000000, 0.0000000000000000000 ) ) ;
#10 = COORDINATED_UNIVERSAL_TIME_OFFSET ( 1, 0, .AHEAD. ) ;
#11 = PERSON_AND_ORGANIZATION ( #55, #107 ) ;
#12 = CALENDAR_DATE ( 2021, 7, 10 ) ;
#13 = AXIS2_PLACEMENT_3D ( 'NONE', #173, #101, #18 ) ;
#14 = EDGE_LOOP ( 'NONE', ( #96 ) ) ;
#15 = CC_DESIGN_APPROVAL ( #161, ( #130 ) ) ;
#16 = CIRCLE ( 'NONE', #177, 0.1399999999999998745 ) ;
#17 = CYLINDRICAL_SURFACE ( 'NONE', #52, 0.4999999999999982792 ) ;
#18 = DIRECTION ( 'NONE',  ( -4.275831445896958607E-31, -1.000000000000000000, -1.224646799147353207E-16 ) ) ;
#19 = ADVANCED_FACE ( 'NONE', ( #33 ), #220, .T. ) ;
#20 = CARTESIAN_POINT ( 'NONE',  ( 0.0000000000000000000, 0.0000000000000000000, 0.0000000000000000000 ) ) ;
#21 = DESIGN_CONTEXT ( 'detailed design', #90, 'design' ) ;
#22 = CC_DESIGN_PERSON_AND_ORGANIZATION_ASSIGNMENT ( #205, #135, ( #158 ) ) ;
#23 = VERTEX_POINT ( 'NONE', #157 ) ;
#24 = FACE_BOUND ( 'NONE', #143, .T. ) ;
#25 = CARTESIAN_POINT ( 'NONE',  ( 2.937051094012674775E-16, 0.1399999999999998745, 0.08412048666385932294 ) ) ;
#26 = CARTESIAN_POINT ( 'NONE',  ( 1.047444401652940007E-13, -3.673940397442059178E-15, 30.00000000000000000 ) ) ;
#27 = AXIS2_PLACEMENT_3D ( 'NONE', #92, #167, #111 ) ;
#28 =( NAMED_UNIT ( * ) PLANE_ANGLE_UNIT ( ) SI_UNIT ( $, .RADIAN. ) );
#29 = CC_DESIGN_PERSON_AND_ORGANIZATION_ASSIGNMENT ( #125, #44, ( #128 ) ) ;
#30 = ORIENTED_EDGE ( 'NONE', *, *, #35, .T. ) ;
#31 = AXIS2_PLACEMENT_3D ( 'NONE', #7, #180, #4 ) ;
#32 = EDGE_CURVE ( 'NONE', #2, #2, #105, .T. ) ;
#33 = FACE_OUTER_BOUND ( 'NONE', #217, .T. ) ;
#34 = SHAPE_DEFINITION_REPRESENTATION ( #51, #147 ) ;
#35 = EDGE_CURVE ( 'NONE', #23, #23, #84, .T. ) ;
#36 = APPROVAL_PERSON_ORGANIZATION ( #213, #116, #168 ) ;
#37 = APPROVAL_PERSON_ORGANIZATION ( #56, #161, #156 ) ;
#38 = DATE_AND_TIME ( #3, #45 ) ;
#39 = AXIS2_PLACEMENT_3D ( 'NONE', #172, #192, #43 ) ;
#40 = DIRECTION ( 'NONE',  ( 0.0000000000000000000, 1.000000000000000000, 0.0000000000000000000 ) ) ;
#41 = CARTESIAN_POINT ( 'NONE',  ( 8.182420208930038871E-15, 0.4999999999999963363, 2.343538290724819007 ) ) ;
#42 = COORDINATED_UNIVERSAL_TIME_OFFSET ( 1, 0, .AHEAD. ) ;
#43 = DIRECTION ( 'NONE',  ( 0.0000000000000000000, -1.000000000000000000, 0.0000000000000000000 ) ) ;
#44 = PERSON_AND_ORGANIZATION_ROLE ( 'design_supplier' ) ;
#45 = LOCAL_TIME ( 15, 46, 48.00000000000000000, #189 ) ;
#46 = VERTEX_POINT ( 'NONE', #59 ) ;
#47 = CALENDAR_DATE ( 2021, 7, 10 ) ;
#48 = ORIENTED_EDGE ( 'NONE', *, *, #174, .T. ) ;
#49 = APPROVAL_ROLE ( '' ) ;
#50 = EDGE_LOOP ( 'NONE', ( #123 ) ) ;
#51 = PRODUCT_DEFINITION_SHAPE ( 'NONE', 'NONE',  #130 ) ;
#52 = AXIS2_PLACEMENT_3D ( 'NONE', #110, #132, #114 ) ;
#53 = CARTESIAN_POINT ( 'NONE',  ( 1.043952920314096810E-13, 0.4999999999999963363, 29.89999999999999858 ) ) ;
#54 = FACE_OUTER_BOUND ( 'NONE', #187, .T. ) ;
#55 = PERSON ( 'UNSPECIFIED', 'UNSPECIFIED', 'UNSPECIFIED', ('UNSPECIFIED'), ('UNSPECIFIED'), ('UNSPECIFIED') ) ;
#56 = PERSON_AND_ORGANIZATION ( #55, #107 ) ;
#57 = FACE_OUTER_BOUND ( 'NONE', #61, .T. ) ;
#58 = DIRECTION ( 'NONE',  ( 4.275831445896958607E-31, 1.000000000000000000, 1.224646799147353207E-16 ) ) ;
#59 = CARTESIAN_POINT ( 'NONE',  ( 3.491481338843133355E-15, 0.1399999999999998745, 1.000000000000000000 ) ) ;
#60 = FACE_BOUND ( 'NONE', #200, .T. ) ;
#61 = EDGE_LOOP ( 'NONE', ( #109 ) ) ;
#62 = COORDINATED_UNIVERSAL_TIME_OFFSET ( 1, 0, .AHEAD. ) ;
#63 = DATE_AND_TIME ( #78, #108 ) ;
#64 = ORIENTED_EDGE ( 'NONE', *, *, #201, .F. ) ;
#65 = ADVANCED_FACE ( 'NONE', ( #166 ), #112, .T. ) ;
#66 = COORDINATED_UNIVERSAL_TIME_OFFSET ( 1, 0, .AHEAD. ) ;
#67 = VERTEX_POINT ( 'NONE', #41 ) ;
#68 = DIRECTION ( 'NONE',  ( 0.0000000000000000000, 0.0000000000000000000, 1.000000000000000000 ) ) ;
#69 = DIRECTION ( 'NONE',  ( 1.000000000000000000, 0.0000000000000000000, 0.0000000000000000000 ) ) ;
#70 = FACE_OUTER_BOUND ( 'NONE', #14, .T. ) ;
#71 = APPROVAL_DATE_TIME ( #63, #116 ) ;
#72 = CARTESIAN_POINT ( 'NONE',  ( 0.0000000000000000000, 0.0000000000000000000, 0.0000000000000000000 ) ) ;
#73 = CARTESIAN_POINT ( 'NONE',  ( 1.047444401652940007E-13, -3.673940397442059178E-15, 30.00000000000000000 ) ) ;
#74 = DIRECTION ( 'NONE',  ( 0.0000000000000000000, 1.000000000000000000, 0.0000000000000000000 ) ) ;
#75 = AXIS2_PLACEMENT_3D ( 'NONE', #209, #145, #216 ) ;
#76 = FACE_OUTER_BOUND ( 'NONE', #211, .T. ) ;
#77 = DIRECTION ( 'NONE',  ( 0.0000000000000000000, 1.000000000000000000, 0.0000000000000000000 ) ) ;
#78 = CALENDAR_DATE ( 2021, 7, 10 ) ;
#79 = APPLICATION_CONTEXT ( 'configuration controlled 3d designs of mechanical parts and assemblies' ) ;
#80 = ORIENTED_EDGE ( 'NONE', *, *, #126, .F. ) ;
#81 = ORIENTED_EDGE ( 'NONE', *, *, #32, .T. ) ;
#82 = PRODUCT_RELATED_PRODUCT_CATEGORY ( 'detail', '', ( #158 ) ) ;
#83 = SECURITY_CLASSIFICATION_LEVEL ( 'unclassified' ) ;
#84 = CIRCLE ( 'NONE', #89, 0.4000000000000000222 ) ;
#85 = AXIS2_PLACEMENT_3D ( 'NONE', #5, #88, #74 ) ;
#86 = CARTESIAN_POINT ( 'NONE',  ( 8.182420208930038871E-15, -2.870006666415408628E-16, 2.343538290724819007 ) ) ;
#87 = ADVANCED_FACE ( 'NONE', ( #54, #24 ), #197, .T. ) ;
#88 = DIRECTION ( 'NONE',  ( -3.491481338843133355E-15, 1.224646799147353207E-16, -1.000000000000000000 ) ) ;
#89 = AXIS2_PLACEMENT_3D ( 'NONE', #26, #91, #40 ) ;
#90 = APPLICATION_CONTEXT ( 'configuration controlled 3d designs of mechanical parts and assemblies' ) ;
#91 = DIRECTION ( 'NONE',  ( -3.491481338843133355E-15, 1.224646799147353207E-16, -1.000000000000000000 ) ) ;
#92 = CARTESIAN_POINT ( 'NONE',  ( 3.491481338843133355E-15, -1.224646799147353207E-16, 1.000000000000000000 ) ) ;
#93 = ORIENTED_EDGE ( 'NONE', *, *, #174, .F. ) ;
#94 = EDGE_CURVE ( 'NONE', #67, #67, #155, .T. ) ;
#95 = EDGE_LOOP ( 'NONE', ( #48 ) ) ;
#96 = ORIENTED_EDGE ( 'NONE', *, *, #94, .F. ) ;
#97 = CC_DESIGN_DATE_AND_TIME_ASSIGNMENT ( #215, #181, ( #115 ) ) ;
#98 = CC_DESIGN_SECURITY_CLASSIFICATION ( #115, ( #128 ) ) ;
#99 = AXIS2_PLACEMENT_3D ( 'NONE', #73, #210, #206 ) ;
#100 = LOCAL_TIME ( 15, 46, 48.00000000000000000, #62 ) ;
#101 = DIRECTION ( 'NONE',  ( 3.491481338843133355E-15, -1.224646799147353207E-16, 1.000000000000000000 ) ) ;
#102 = ADVANCED_FACE ( 'NONE', ( #104, #76 ), #202, .T. ) ;
#103 = APPLICATION_PROTOCOL_DEFINITION ( 'international standard', 'config_control_design', 1994, #90 ) ;
#104 = FACE_OUTER_BOUND ( 'NONE', #129, .T. ) ;
#105 = CIRCLE ( 'NONE', #170, 0.1400000000000000133 ) ;
#106 = ADVANCED_FACE ( 'NONE', ( #57 ), #190, .F. ) ;
#107 = ORGANIZATION ( 'UNSPECIFIED', 'UNSPECIFIED', '' ) ;
#108 = LOCAL_TIME ( 15, 46, 48.00000000000000000, #10 ) ;
#109 = ORIENTED_EDGE ( 'NONE', *, *, #35, .F. ) ;
#110 = CARTESIAN_POINT ( 'NONE',  ( 0.0000000000000000000, 0.0000000000000000000, 0.0000000000000000000 ) ) ;
#111 = DIRECTION ( 'NONE',  ( 0.0000000000000000000, 1.000000000000000000, 0.0000000000000000000 ) ) ;
#112 = CONICAL_SURFACE ( 'NONE', #31, 0.1399999999999998745, 1.029744258676649649 ) ;
#113 = MECHANICAL_CONTEXT ( 'NONE', #79, 'mechanical' ) ;
#114 = DIRECTION ( 'NONE',  ( 4.275831445896958607E-31, 1.000000000000000000, 1.224646799147353207E-16 ) ) ;
#115 = SECURITY_CLASSIFICATION ( '', '', #83 ) ;
#116 = APPROVAL ( #122, 'UNSPECIFIED' ) ;
#117 = DIRECTION ( 'NONE',  ( -3.491481338843133355E-15, 1.224646799147353207E-16, -1.000000000000000000 ) ) ;
#118 = DIRECTION ( 'NONE',  ( -3.491481338843133355E-15, 1.224646799147353207E-16, -1.000000000000000000 ) ) ;
#119 = CARTESIAN_POINT ( 'NONE',  ( 1.047444401652940007E-13, 2.999519565323660135E-33, 30.00000000000000000 ) ) ;
#120 = DATE_TIME_ROLE ( 'creation_date' ) ;
#121 = PERSON_AND_ORGANIZATION_ROLE ( 'creator' ) ;
#122 = APPROVAL_STATUS ( 'not_yet_approved' ) ;
#123 = ORIENTED_EDGE ( 'NONE', *, *, #126, .T. ) ;
#124 = APPROVAL_DATE_TIME ( #144, #165 ) ;
#125 = PERSON_AND_ORGANIZATION ( #55, #107 ) ;
#126 = EDGE_CURVE ( 'NONE', #162, #162, #153, .T. ) ;
#127 = CALENDAR_DATE ( 2021, 7, 10 ) ;
#128 = PRODUCT_DEFINITION_FORMATION_WITH_SPECIFIED_SOURCE ( 'ANY', '', #158, .NOT_KNOWN. ) ;
#129 = EDGE_LOOP ( 'NONE', ( #93 ) ) ;
#130 = PRODUCT_DEFINITION ( 'UNKNOWN', '', #128, #21 ) ;
#131 = AXIS2_PLACEMENT_3D ( 'NONE', #72, #141, #208 ) ;
#132 = DIRECTION ( 'NONE',  ( -3.491481338843133355E-15, 1.224646799147353207E-16, -1.000000000000000000 ) ) ;
#133 = PERSON_AND_ORGANIZATION ( #55, #107 ) ;
#134 = CC_DESIGN_APPROVAL ( #116, ( #128 ) ) ;
#135 = PERSON_AND_ORGANIZATION_ROLE ( 'design_owner' ) ;
#136 = CARTESIAN_POINT ( 'NONE',  ( 2.937051094012674282E-16, -1.030178847356129015E-17, 0.08412048666385930906 ) ) ;
#137 = CC_DESIGN_PERSON_AND_ORGANIZATION_ASSIGNMENT ( #133, #121, ( #128 ) ) ;
#138 = DIRECTION ( 'NONE',  ( -3.491481338843133355E-15, 1.224646799147353207E-16, -1.000000000000000000 ) ) ;
#139 = MANIFOLD_SOLID_BREP ( 'Corps-Déplacer/Copier1[1]', #178 ) ;
#140 = CC_DESIGN_APPROVAL ( #165, ( #115 ) ) ;
#141 = DIRECTION ( 'NONE',  ( -3.491481338843133355E-15, 1.224646799147353207E-16, -1.000000000000000000 ) ) ;
#142 = ORIENTED_EDGE ( 'NONE', *, *, #94, .T. ) ;
#143 = EDGE_LOOP ( 'NONE', ( #30 ) ) ;
#144 = DATE_AND_TIME ( #127, #100 ) ;
#145 = DIRECTION ( 'NONE',  ( 3.491481338843133355E-15, -1.224646799147353207E-16, 1.000000000000000000 ) ) ;
#146 = ORIENTED_EDGE ( 'NONE', *, *, #32, .F. ) ;
#147 = ADVANCED_BREP_SHAPE_REPRESENTATION ( '36934', ( #139, #218, #196 ), #171 ) ;
#148 = PERSON_AND_ORGANIZATION_ROLE ( 'classification_officer' ) ;
#149 = EDGE_LOOP ( 'NONE', ( #142 ) ) ;
#150 = LOCAL_TIME ( 15, 46, 48.00000000000000000, #42 ) ;
#151 = APPROVAL_STATUS ( 'not_yet_approved' ) ;
#152 = ORIENTED_EDGE ( 'NONE', *, *, #201, .T. ) ;
#153 = CIRCLE ( 'NONE', #85, 0.5000000000000000000 ) ;
#154 = CC_DESIGN_PERSON_AND_ORGANIZATION_ASSIGNMENT ( #169, #148, ( #115 ) ) ;
#155 = CIRCLE ( 'NONE', #164, 0.4999999999999966693 ) ;
#156 = APPROVAL_ROLE ( '' ) ;
#157 = CARTESIAN_POINT ( 'NONE',  ( 1.047444401652940007E-13, 0.3999999999999963585, 30.00000000000000000 ) ) ;
#158 = PRODUCT ( '36934', '36934', '', ( #113 ) ) ;
#159 = CLOSED_SHELL ( 'NONE', ( #65, #102, #19 ) ) ;
#160 = VERTEX_POINT ( 'NONE', #25 ) ;
#161 = APPROVAL ( #151, 'UNSPECIFIED' ) ;
#162 = VERTEX_POINT ( 'NONE', #53 ) ;
#163 = DIRECTION ( 'NONE',  ( -3.491481338843133355E-15, 1.224646799147353207E-16, -1.000000000000000000 ) ) ;
#164 = AXIS2_PLACEMENT_3D ( 'NONE', #86, #163, #9 ) ;
#165 = APPROVAL ( #182, 'UNSPECIFIED' ) ;
#166 = FACE_OUTER_BOUND ( 'NONE', #95, .T. ) ;
#167 = DIRECTION ( 'NONE',  ( -3.491481338843133355E-15, 1.224646799147353207E-16, -1.000000000000000000 ) ) ;
#168 = APPROVAL_ROLE ( '' ) ;
#169 = PERSON_AND_ORGANIZATION ( #55, #107 ) ;
#170 = AXIS2_PLACEMENT_3D ( 'NONE', #179, #117, #77 ) ;
#171 =( GEOMETRIC_REPRESENTATION_CONTEXT ( 3 ) GLOBAL_UNCERTAINTY_ASSIGNED_CONTEXT ( ( #1 ) ) GLOBAL_UNIT_ASSIGNED_CONTEXT ( ( #193, #28, #183 ) ) REPRESENTATION_CONTEXT ( 'NONE', 'WORKASPACE' ) );
#172 = CARTESIAN_POINT ( 'NONE',  ( 8.182420208930038871E-15, -2.870006666415408628E-16, 2.343538290724819007 ) ) ;
#173 = CARTESIAN_POINT ( 'NONE',  ( 3.491481338843133355E-15, 1.049831847863298752E-33, 1.000000000000000000 ) ) ;
#174 = EDGE_CURVE ( 'NONE', #160, #160, #16, .T. ) ;
#175 = APPLICATION_PROTOCOL_DEFINITION ( 'international standard', 'config_control_design', 1994, #79 ) ;
#176 = CARTESIAN_POINT ( 'NONE',  ( 3.491481338843133355E-15, 0.1399999999999998745, 1.000000000000000000 ) ) ;
#177 = AXIS2_PLACEMENT_3D ( 'NONE', #136, #118, #8 ) ;
#178 = CLOSED_SHELL ( 'NONE', ( #188, #199, #212, #87, #106 ) ) ;
#179 = CARTESIAN_POINT ( 'NONE',  ( 3.491481338843133355E-15, -1.224646799147353207E-16, 1.000000000000000000 ) ) ;
#180 = DIRECTION ( 'NONE',  ( 3.491481338843133355E-15, -1.224646799147353207E-16, 1.000000000000000000 ) ) ;
#181 = DATE_TIME_ROLE ( 'classification_date' ) ;
#182 = APPROVAL_STATUS ( 'not_yet_approved' ) ;
#183 =( NAMED_UNIT ( * ) SI_UNIT ( $, .STERADIAN. ) SOLID_ANGLE_UNIT ( ) );
#184 = CC_DESIGN_DATE_AND_TIME_ASSIGNMENT ( #204, #120, ( #130 ) ) ;
#185 = AXIS2_PLACEMENT_3D ( 'NONE', #119, #138, #58 ) ;
#186 = PERSON_AND_ORGANIZATION_ROLE ( 'creator' ) ;
#187 = EDGE_LOOP ( 'NONE', ( #80 ) ) ;
#188 = ADVANCED_FACE ( 'NONE', ( #203 ), #191, .F. ) ;
#189 = COORDINATED_UNIVERSAL_TIME_OFFSET ( 1, 0, .AHEAD. ) ;
#190 = PLANE ( 'NONE',  #185 ) ;
#191 = PLANE ( 'NONE',  #75 ) ;
#192 = DIRECTION ( 'NONE',  ( 3.491481338843133355E-15, -1.224646799147353207E-16, 1.000000000000000000 ) ) ;
#193 =( LENGTH_UNIT ( ) NAMED_UNIT ( * ) SI_UNIT ( .MILLI., .METRE. ) );
#194 = CC_DESIGN_PERSON_AND_ORGANIZATION_ASSIGNMENT ( #11, #186, ( #130 ) ) ;
#195 = FACE_OUTER_BOUND ( 'NONE', #149, .T. ) ;
#196 = AXIS2_PLACEMENT_3D ( 'NONE', #20, #68, #69 ) ;
#197 = CONICAL_SURFACE ( 'NONE', #99, 0.4000000000000000222, 0.7853981633974512766 ) ;
#198 = APPROVAL_PERSON_ORGANIZATION ( #219, #165, #49 ) ;
#199 = ADVANCED_FACE ( 'NONE', ( #60, #195 ), #222, .T. ) ;
#200 = EDGE_LOOP ( 'NONE', ( #146 ) ) ;
#201 = EDGE_CURVE ( 'NONE', #46, #46, #6, .T. ) ;
#202 = CYLINDRICAL_SURFACE ( 'NONE', #131, 0.1399999999999999301 ) ;
#203 = FACE_OUTER_BOUND ( 'NONE', #214, .T. ) ;
#204 = DATE_AND_TIME ( #12, #207 ) ;
#205 = PERSON_AND_ORGANIZATION ( #55, #107 ) ;
#206 = DIRECTION ( 'NONE',  ( 0.0000000000000000000, 1.000000000000000000, 0.0000000000000000000 ) ) ;
#207 = LOCAL_TIME ( 15, 46, 48.00000000000000000, #66 ) ;
#208 = DIRECTION ( 'NONE',  ( 4.275831445896958607E-31, 1.000000000000000000, 1.224646799147353207E-16 ) ) ;
#209 = CARTESIAN_POINT ( 'NONE',  ( 3.491481338843133355E-15, 1.049831847863298752E-33, 1.000000000000000000 ) ) ;
#210 = DIRECTION ( 'NONE',  ( -3.491481338843133355E-15, 1.224646799147353207E-16, -1.000000000000000000 ) ) ;
#211 = EDGE_LOOP ( 'NONE', ( #152 ) ) ;
#212 = ADVANCED_FACE ( 'NONE', ( #70, #221 ), #17, .T. ) ;
#213 = PERSON_AND_ORGANIZATION ( #55, #107 ) ;
#214 = EDGE_LOOP ( 'NONE', ( #81 ) ) ;
#215 = DATE_AND_TIME ( #47, #150 ) ;
#216 = DIRECTION ( 'NONE',  ( -4.275831445896958607E-31, -1.000000000000000000, -1.224646799147353207E-16 ) ) ;
#217 = EDGE_LOOP ( 'NONE', ( #64 ) ) ;
#218 = MANIFOLD_SOLID_BREP ( 'Corps-Déplacer/Copier1[2]', #159 ) ;
#219 = PERSON_AND_ORGANIZATION ( #55, #107 ) ;
#220 = PLANE ( 'NONE',  #13 ) ;
#221 = FACE_OUTER_BOUND ( 'NONE', #50, .T. ) ;
#222 = CONICAL_SURFACE ( 'NONE', #39, 0.4999999999999966693, 0.2617993877991428020 ) ;
#223 = APPROVAL_DATE_TIME ( #38, #161 ) ;
ENDSEC;
END-ISO-10303-21;
