ISO-10303-21;
HEADER;
FILE_DESCRIPTION (( 'STEP AP203' ),
    '1' );
FILE_NAME ('36933.step',
    '2021-10-07T13:46:47',
    ( '' ),
    ( '' ),
    'SwSTEP 2.0',
    'SolidWorks 2019',
    '' );
FILE_SCHEMA (( 'CONFIG_CONTROL_DESIGN' ));
ENDSEC;

DATA;
#1 = DATE_AND_TIME ( #25, #53 ) ;
#2 = CARTESIAN_POINT ( 'NONE',  ( 1.043952920314096810E-13, 0.4999999999999963363, 29.89999999999999858 ) ) ;
#3 = PERSON_AND_ORGANIZATION ( #174, #145 ) ;
#4 = DATE_AND_TIME ( #142, #60 ) ;
#5 = CIRCLE ( 'NONE', #220, 0.5000000000000000000 ) ;
#6 = LOCAL_TIME ( 15, 46, 47.00000000000000000, #57 ) ;
#7 = SHAPE_DEFINITION_REPRESENTATION ( #208, #92 ) ;
#8 = APPROVAL_DATE_TIME ( #159, #20 ) ;
#9 = FACE_BOUND ( 'NONE', #58, .T. ) ;
#10 = DIRECTION ( 'NONE',  ( 3.491481338843133355E-15, -1.224646799147353207E-16, 1.000000000000000000 ) ) ;
#11 = AXIS2_PLACEMENT_3D ( 'NONE', #81, #191, #223 ) ;
#12 = DIRECTION ( 'NONE',  ( -4.275831445896958607E-31, -1.000000000000000000, -1.224646799147353207E-16 ) ) ;
#13 = PRODUCT_DEFINITION_FORMATION_WITH_SPECIFIED_SOURCE ( 'ANY', '', #193, .NOT_KNOWN. ) ;
#14 = DIRECTION ( 'NONE',  ( 0.0000000000000000000, 1.000000000000000000, 0.0000000000000000000 ) ) ;
#15 = DIRECTION ( 'NONE',  ( -3.491481338843133355E-15, 1.224646799147353207E-16, -1.000000000000000000 ) ) ;
#16 = CARTESIAN_POINT ( 'NONE',  ( 1.047444401652940007E-13, -3.673940397442059178E-15, 30.00000000000000000 ) ) ;
#17 = DESIGN_CONTEXT ( 'detailed design', #83, 'design' ) ;
#18 =( GEOMETRIC_REPRESENTATION_CONTEXT ( 3 ) GLOBAL_UNCERTAINTY_ASSIGNED_CONTEXT ( ( #100 ) ) GLOBAL_UNIT_ASSIGNED_CONTEXT ( ( #128, #106, #143 ) ) REPRESENTATION_CONTEXT ( 'NONE', 'WORKASPACE' ) );
#19 = MECHANICAL_CONTEXT ( 'NONE', #214, 'mechanical' ) ;
#20 = APPROVAL ( #209, 'UNSPECIFIED' ) ;
#21 = CARTESIAN_POINT ( 'NONE',  ( 1.047444401652940007E-13, 2.999519565323660135E-33, 30.00000000000000000 ) ) ;
#22 = PERSON_AND_ORGANIZATION_ROLE ( 'classification_officer' ) ;
#23 = VERTEX_POINT ( 'NONE', #199 ) ;
#24 = AXIS2_PLACEMENT_3D ( 'NONE', #74, #195, #146 ) ;
#25 = CALENDAR_DATE ( 2021, 7, 10 ) ;
#26 = CLOSED_SHELL ( 'NONE', ( #116, #76, #35, #158, #39 ) ) ;
#27 = ORIENTED_EDGE ( 'NONE', *, *, #152, .F. ) ;
#28 = FACE_OUTER_BOUND ( 'NONE', #93, .T. ) ;
#29 = EDGE_LOOP ( 'NONE', ( #115 ) ) ;
#30 = DIRECTION ( 'NONE',  ( 0.0000000000000000000, 1.000000000000000000, 0.0000000000000000000 ) ) ;
#31 = CARTESIAN_POINT ( 'NONE',  ( 0.0000000000000000000, 0.0000000000000000000, 0.0000000000000000000 ) ) ;
#32 = VERTEX_POINT ( 'NONE', #96 ) ;
#33 = AXIS2_PLACEMENT_3D ( 'NONE', #51, #171, #30 ) ;
#34 = CIRCLE ( 'NONE', #84, 0.4999999999999966693 ) ;
#35 = ADVANCED_FACE ( 'NONE', ( #183, #28 ), #94, .T. ) ;
#36 = APPLICATION_PROTOCOL_DEFINITION ( 'international standard', 'config_control_design', 1994, #83 ) ;
#37 = AXIS2_PLACEMENT_3D ( 'NONE', #168, #98, #155 ) ;
#38 = SECURITY_CLASSIFICATION_LEVEL ( 'unclassified' ) ;
#39 = ADVANCED_FACE ( 'NONE', ( #47 ), #170, .F. ) ;
#40 = APPROVAL_ROLE ( '' ) ;
#41 = CONICAL_SURFACE ( 'NONE', #73, 0.1349999999999998701, 1.029744258676649649 ) ;
#42 = EDGE_LOOP ( 'NONE', ( #108 ) ) ;
#43 = CC_DESIGN_PERSON_AND_ORGANIZATION_ASSIGNMENT ( #196, #85, ( #148 ) ) ;
#44 = ORIENTED_EDGE ( 'NONE', *, *, #213, .T. ) ;
#45 = CONICAL_SURFACE ( 'NONE', #89, 0.4999999999999966693, 0.2617993877991426910 ) ;
#46 = FACE_OUTER_BOUND ( 'NONE', #63, .T. ) ;
#47 = FACE_OUTER_BOUND ( 'NONE', #184, .T. ) ;
#48 = FACE_OUTER_BOUND ( 'NONE', #165, .T. ) ;
#49 = FACE_BOUND ( 'NONE', #216, .T. ) ;
#50 = PRODUCT_RELATED_PRODUCT_CATEGORY ( 'detail', '', ( #193 ) ) ;
#51 = CARTESIAN_POINT ( 'NONE',  ( 3.491481338843133355E-15, -1.224646799147353207E-16, 1.000000000000000000 ) ) ;
#52 = APPROVAL ( #87, 'UNSPECIFIED' ) ;
#53 = LOCAL_TIME ( 15, 46, 47.00000000000000000, #107 ) ;
#54 = CALENDAR_DATE ( 2021, 7, 10 ) ;
#55 = CALENDAR_DATE ( 2021, 7, 10 ) ;
#56 = PERSON_AND_ORGANIZATION ( #174, #145 ) ;
#57 = COORDINATED_UNIVERSAL_TIME_OFFSET ( 1, 0, .AHEAD. ) ;
#58 = EDGE_LOOP ( 'NONE', ( #203 ) ) ;
#59 = MANIFOLD_SOLID_BREP ( 'Corps-Déplacer/Copier1[1]', #26 ) ;
#60 = LOCAL_TIME ( 15, 46, 47.00000000000000000, #104 ) ;
#61 = AXIS2_PLACEMENT_3D ( 'NONE', #65, #189, #117 ) ;
#62 = CARTESIAN_POINT ( 'NONE',  ( 3.491481338843133355E-15, 1.012337853296752551E-33, 1.000000000000000000 ) ) ;
#63 = EDGE_LOOP ( 'NONE', ( #200 ) ) ;
#64 = CARTESIAN_POINT ( 'NONE',  ( 8.247572137681247141E-15, -2.892858886794132328E-16, 2.362198544762664110 ) ) ;
#65 = CARTESIAN_POINT ( 'NONE',  ( 1.047444401652940007E-13, -3.673940397442059178E-15, 30.00000000000000000 ) ) ;
#66 = AXIS2_PLACEMENT_3D ( 'NONE', #62, #133, #169 ) ;
#67 = CYLINDRICAL_SURFACE ( 'NONE', #131, 0.1349999999999999811 ) ;
#68 = APPROVAL_DATE_TIME ( #147, #52 ) ;
#69 = APPROVAL_ROLE ( '' ) ;
#70 = VERTEX_POINT ( 'NONE', #2 ) ;
#71 = PERSON_AND_ORGANIZATION ( #174, #145 ) ;
#72 = AXIS2_PLACEMENT_3D ( 'NONE', #16, #135, #14 ) ;
#73 = AXIS2_PLACEMENT_3D ( 'NONE', #149, #10, #79 ) ;
#74 = CARTESIAN_POINT ( 'NONE',  ( 0.0000000000000000000, 0.0000000000000000000, 0.0000000000000000000 ) ) ;
#75 = APPROVAL_ROLE ( '' ) ;
#76 = ADVANCED_FACE ( 'NONE', ( #9, #46 ), #45, .T. ) ;
#77 = DATE_AND_TIME ( #55, #120 ) ;
#78 = DIRECTION ( 'NONE',  ( 3.491481338843133355E-15, -1.224646799147353207E-16, 1.000000000000000000 ) ) ;
#79 = DIRECTION ( 'NONE',  ( -3.566536934050440041E-31, -1.000000000000000000, -1.003890900449542065E-16 ) ) ;
#80 = ORIENTED_EDGE ( 'NONE', *, *, #190, .T. ) ;
#81 = CARTESIAN_POINT ( 'NONE',  ( 2.832156412083649972E-16, -9.933867456648386652E-18, 0.08111618356872146718 ) ) ;
#82 = PLANE ( 'NONE',  #88 ) ;
#83 = APPLICATION_CONTEXT ( 'configuration controlled 3d designs of mechanical parts and assemblies' ) ;
#84 = AXIS2_PLACEMENT_3D ( 'NONE', #64, #206, #118 ) ;
#85 = PERSON_AND_ORGANIZATION_ROLE ( 'creator' ) ;
#86 = APPROVAL_STATUS ( 'not_yet_approved' ) ;
#87 = APPROVAL_STATUS ( 'not_yet_approved' ) ;
#88 = AXIS2_PLACEMENT_3D ( 'NONE', #221, #167, #12 ) ;
#89 = AXIS2_PLACEMENT_3D ( 'NONE', #114, #78, #111 ) ;
#90 = DATE_TIME_ROLE ( 'creation_date' ) ;
#91 = ORIENTED_EDGE ( 'NONE', *, *, #210, .F. ) ;
#92 = ADVANCED_BREP_SHAPE_REPRESENTATION ( '36933', ( #59, #136, #24 ), #18 ) ;
#93 = EDGE_LOOP ( 'NONE', ( #112 ) ) ;
#94 = CYLINDRICAL_SURFACE ( 'NONE', #192, 0.4999999999999982792 ) ;
#95 = VERTEX_POINT ( 'NONE', #178 ) ;
#96 = CARTESIAN_POINT ( 'NONE',  ( 2.832156412083650465E-16, 0.1349999999999998701, 0.08111618356872148106 ) ) ;
#97 = ADVANCED_FACE ( 'NONE', ( #186 ), #41, .T. ) ;
#98 = DIRECTION ( 'NONE',  ( -3.491481338843133355E-15, 1.224646799147353207E-16, -1.000000000000000000 ) ) ;
#99 = CARTESIAN_POINT ( 'NONE',  ( 8.247572137681247141E-15, 0.4999999999999963363, 2.362198544762664110 ) ) ;
#100 = UNCERTAINTY_MEASURE_WITH_UNIT (LENGTH_MEASURE( 1.000000000000000082E-05 ), #128, 'distance_accuracy_value', 'NONE');
#101 = CC_DESIGN_SECURITY_CLASSIFICATION ( #194, ( #13 ) ) ;
#102 = CIRCLE ( 'NONE', #37, 0.1350000000000000921 ) ;
#103 = PERSON_AND_ORGANIZATION_ROLE ( 'design_supplier' ) ;
#104 = COORDINATED_UNIVERSAL_TIME_OFFSET ( 1, 0, .AHEAD. ) ;
#105 = PERSON_AND_ORGANIZATION ( #174, #145 ) ;
#106 =( NAMED_UNIT ( * ) PLANE_ANGLE_UNIT ( ) SI_UNIT ( $, .RADIAN. ) );
#107 = COORDINATED_UNIVERSAL_TIME_OFFSET ( 1, 0, .AHEAD. ) ;
#108 = ORIENTED_EDGE ( 'NONE', *, *, #152, .T. ) ;
#109 = ORIENTED_EDGE ( 'NONE', *, *, #205, .T. ) ;
#110 = CC_DESIGN_PERSON_AND_ORGANIZATION_ASSIGNMENT ( #141, #103, ( #13 ) ) ;
#111 = DIRECTION ( 'NONE',  ( 0.0000000000000000000, -1.000000000000000000, 0.0000000000000000000 ) ) ;
#112 = ORIENTED_EDGE ( 'NONE', *, *, #210, .T. ) ;
#113 = AXIS2_PLACEMENT_3D ( 'NONE', #21, #121, #185 ) ;
#114 = CARTESIAN_POINT ( 'NONE',  ( 8.247572137681247141E-15, -2.892858886794132328E-16, 2.362198544762664110 ) ) ;
#115 = ORIENTED_EDGE ( 'NONE', *, *, #182, .F. ) ;
#116 = ADVANCED_FACE ( 'NONE', ( #150 ), #219, .F. ) ;
#117 = DIRECTION ( 'NONE',  ( 0.0000000000000000000, 1.000000000000000000, 0.0000000000000000000 ) ) ;
#118 = DIRECTION ( 'NONE',  ( 0.0000000000000000000, 1.000000000000000000, 0.0000000000000000000 ) ) ;
#119 = VERTEX_POINT ( 'NONE', #99 ) ;
#120 = LOCAL_TIME ( 15, 46, 47.00000000000000000, #144 ) ;
#121 = DIRECTION ( 'NONE',  ( -3.491481338843133355E-15, 1.224646799147353207E-16, -1.000000000000000000 ) ) ;
#122 = ADVANCED_FACE ( 'NONE', ( #156 ), #82, .T. ) ;
#123 = CC_DESIGN_DATE_AND_TIME_ASSIGNMENT ( #1, #90, ( #148 ) ) ;
#124 = COORDINATED_UNIVERSAL_TIME_OFFSET ( 1, 0, .AHEAD. ) ;
#125 = APPROVAL_DATE_TIME ( #4, #140 ) ;
#126 = CARTESIAN_POINT ( 'NONE',  ( 1.047444401652940007E-13, 0.3999999999999963585, 30.00000000000000000 ) ) ;
#127 = ADVANCED_FACE ( 'NONE', ( #48, #137 ), #67, .T. ) ;
#128 =( LENGTH_UNIT ( ) NAMED_UNIT ( * ) SI_UNIT ( .MILLI., .METRE. ) );
#129 = EDGE_LOOP ( 'NONE', ( #80 ) ) ;
#130 = CC_DESIGN_DATE_AND_TIME_ASSIGNMENT ( #77, #211, ( #194 ) ) ;
#131 = AXIS2_PLACEMENT_3D ( 'NONE', #31, #204, #188 ) ;
#132 = CC_DESIGN_APPROVAL ( #52, ( #13 ) ) ;
#133 = DIRECTION ( 'NONE',  ( 3.491481338843133355E-15, -1.224646799147353207E-16, 1.000000000000000000 ) ) ;
#134 = EDGE_LOOP ( 'NONE', ( #44 ) ) ;
#135 = DIRECTION ( 'NONE',  ( -3.491481338843133355E-15, 1.224646799147353207E-16, -1.000000000000000000 ) ) ;
#136 = MANIFOLD_SOLID_BREP ( 'Corps-Déplacer/Copier1[2]', #153 ) ;
#137 = FACE_OUTER_BOUND ( 'NONE', #129, .T. ) ;
#138 = APPROVAL_PERSON_ORGANIZATION ( #163, #52, #75 ) ;
#139 = DIRECTION ( 'NONE',  ( -3.491481338843133355E-15, 1.224646799147353207E-16, -1.000000000000000000 ) ) ;
#140 = APPROVAL ( #86, 'UNSPECIFIED' ) ;
#141 = PERSON_AND_ORGANIZATION ( #174, #145 ) ;
#142 = CALENDAR_DATE ( 2021, 7, 10 ) ;
#143 =( NAMED_UNIT ( * ) SI_UNIT ( $, .STERADIAN. ) SOLID_ANGLE_UNIT ( ) );
#144 = COORDINATED_UNIVERSAL_TIME_OFFSET ( 1, 0, .AHEAD. ) ;
#145 = ORGANIZATION ( 'UNSPECIFIED', 'UNSPECIFIED', '' ) ;
#146 = DIRECTION ( 'NONE',  ( 1.000000000000000000, 0.0000000000000000000, 0.0000000000000000000 ) ) ;
#147 = DATE_AND_TIME ( #54, #6 ) ;
#148 = PRODUCT_DEFINITION ( 'UNKNOWN', '', #13, #17 ) ;
#149 = CARTESIAN_POINT ( 'NONE',  ( 2.832156412083649972E-16, -9.933867456648386652E-18, 0.08111618356872146718 ) ) ;
#150 = FACE_OUTER_BOUND ( 'NONE', #134, .T. ) ;
#151 = ORIENTED_EDGE ( 'NONE', *, *, #190, .F. ) ;
#152 = EDGE_CURVE ( 'NONE', #32, #32, #172, .T. ) ;
#153 = CLOSED_SHELL ( 'NONE', ( #97, #127, #122 ) ) ;
#154 = CC_DESIGN_PERSON_AND_ORGANIZATION_ASSIGNMENT ( #212, #176, ( #13 ) ) ;
#155 = DIRECTION ( 'NONE',  ( 0.0000000000000000000, 1.000000000000000000, 0.0000000000000000000 ) ) ;
#156 = FACE_OUTER_BOUND ( 'NONE', #187, .T. ) ;
#157 = CARTESIAN_POINT ( 'NONE',  ( 1.043952920314096810E-13, -3.661693929450586610E-15, 29.89999999999999858 ) ) ;
#158 = ADVANCED_FACE ( 'NONE', ( #222, #49 ), #173, .T. ) ;
#159 = DATE_AND_TIME ( #181, #202 ) ;
#160 = APPLICATION_PROTOCOL_DEFINITION ( 'international standard', 'config_control_design', 1994, #214 ) ;
#161 = CIRCLE ( 'NONE', #72, 0.4000000000000000222 ) ;
#162 = CIRCLE ( 'NONE', #33, 0.1350000000000000921 ) ;
#163 = PERSON_AND_ORGANIZATION ( #174, #145 ) ;
#164 = CC_DESIGN_PERSON_AND_ORGANIZATION_ASSIGNMENT ( #56, #198, ( #193 ) ) ;
#165 = EDGE_LOOP ( 'NONE', ( #27 ) ) ;
#166 = EDGE_LOOP ( 'NONE', ( #91 ) ) ;
#167 = DIRECTION ( 'NONE',  ( 3.491481338843133355E-15, -1.224646799147353207E-16, 1.000000000000000000 ) ) ;
#168 = CARTESIAN_POINT ( 'NONE',  ( 3.491481338843133355E-15, -1.224646799147353207E-16, 1.000000000000000000 ) ) ;
#169 = DIRECTION ( 'NONE',  ( -4.275831445896958607E-31, -1.000000000000000000, -1.224646799147353207E-16 ) ) ;
#170 = PLANE ( 'NONE',  #113 ) ;
#171 = DIRECTION ( 'NONE',  ( -3.491481338843133355E-15, 1.224646799147353207E-16, -1.000000000000000000 ) ) ;
#172 = CIRCLE ( 'NONE', #11, 0.1349999999999998701 ) ;
#173 = CONICAL_SURFACE ( 'NONE', #61, 0.4000000000000000222, 0.7853981633974512766 ) ;
#174 = PERSON ( 'UNSPECIFIED', 'UNSPECIFIED', 'UNSPECIFIED', ('UNSPECIFIED'), ('UNSPECIFIED'), ('UNSPECIFIED') ) ;
#175 = DIRECTION ( 'NONE',  ( 4.275831445896958607E-31, 1.000000000000000000, 1.224646799147353207E-16 ) ) ;
#176 = PERSON_AND_ORGANIZATION_ROLE ( 'creator' ) ;
#177 = CC_DESIGN_PERSON_AND_ORGANIZATION_ASSIGNMENT ( #105, #22, ( #194 ) ) ;
#178 = CARTESIAN_POINT ( 'NONE',  ( 3.491481338843133355E-15, 0.1349999999999999534, 1.000000000000000000 ) ) ;
#179 = VERTEX_POINT ( 'NONE', #126 ) ;
#180 = APPROVAL_PERSON_ORGANIZATION ( #71, #140, #69 ) ;
#181 = CALENDAR_DATE ( 2021, 7, 10 ) ;
#182 = EDGE_CURVE ( 'NONE', #119, #119, #34, .T. ) ;
#183 = FACE_OUTER_BOUND ( 'NONE', #29, .T. ) ;
#184 = EDGE_LOOP ( 'NONE', ( #215 ) ) ;
#185 = DIRECTION ( 'NONE',  ( 4.275831445896958607E-31, 1.000000000000000000, 1.224646799147353207E-16 ) ) ;
#186 = FACE_OUTER_BOUND ( 'NONE', #42, .T. ) ;
#187 = EDGE_LOOP ( 'NONE', ( #151 ) ) ;
#188 = DIRECTION ( 'NONE',  ( 4.275831445896957731E-31, 1.000000000000000000, 1.224646799147352961E-16 ) ) ;
#189 = DIRECTION ( 'NONE',  ( -3.491481338843133355E-15, 1.224646799147353207E-16, -1.000000000000000000 ) ) ;
#190 = EDGE_CURVE ( 'NONE', #95, #95, #102, .T. ) ;
#191 = DIRECTION ( 'NONE',  ( -3.491481338843133355E-15, 1.224646799147353207E-16, -1.000000000000000000 ) ) ;
#192 = AXIS2_PLACEMENT_3D ( 'NONE', #217, #15, #175 ) ;
#193 = PRODUCT ( '36933', '36933', '', ( #19 ) ) ;
#194 = SECURITY_CLASSIFICATION ( '', '', #38 ) ;
#195 = DIRECTION ( 'NONE',  ( 0.0000000000000000000, 0.0000000000000000000, 1.000000000000000000 ) ) ;
#196 = PERSON_AND_ORGANIZATION ( #174, #145 ) ;
#197 = APPROVAL_PERSON_ORGANIZATION ( #3, #20, #40 ) ;
#198 = PERSON_AND_ORGANIZATION_ROLE ( 'design_owner' ) ;
#199 = CARTESIAN_POINT ( 'NONE',  ( 3.491481338843133355E-15, 0.1349999999999999534, 1.000000000000000000 ) ) ;
#200 = ORIENTED_EDGE ( 'NONE', *, *, #182, .T. ) ;
#201 = CC_DESIGN_APPROVAL ( #140, ( #194 ) ) ;
#202 = LOCAL_TIME ( 15, 46, 47.00000000000000000, #124 ) ;
#203 = ORIENTED_EDGE ( 'NONE', *, *, #213, .F. ) ;
#204 = DIRECTION ( 'NONE',  ( -3.491481338843133355E-15, 1.224646799147353207E-16, -1.000000000000000000 ) ) ;
#205 = EDGE_CURVE ( 'NONE', #179, #179, #161, .T. ) ;
#206 = DIRECTION ( 'NONE',  ( -3.491481338843133355E-15, 1.224646799147353207E-16, -1.000000000000000000 ) ) ;
#207 = DIRECTION ( 'NONE',  ( 0.0000000000000000000, 1.000000000000000000, 0.0000000000000000000 ) ) ;
#208 = PRODUCT_DEFINITION_SHAPE ( 'NONE', 'NONE',  #148 ) ;
#209 = APPROVAL_STATUS ( 'not_yet_approved' ) ;
#210 = EDGE_CURVE ( 'NONE', #70, #70, #5, .T. ) ;
#211 = DATE_TIME_ROLE ( 'classification_date' ) ;
#212 = PERSON_AND_ORGANIZATION ( #174, #145 ) ;
#213 = EDGE_CURVE ( 'NONE', #23, #23, #162, .T. ) ;
#214 = APPLICATION_CONTEXT ( 'configuration controlled 3d designs of mechanical parts and assemblies' ) ;
#215 = ORIENTED_EDGE ( 'NONE', *, *, #205, .F. ) ;
#216 = EDGE_LOOP ( 'NONE', ( #109 ) ) ;
#217 = CARTESIAN_POINT ( 'NONE',  ( 0.0000000000000000000, 0.0000000000000000000, 0.0000000000000000000 ) ) ;
#218 = CC_DESIGN_APPROVAL ( #20, ( #148 ) ) ;
#219 = PLANE ( 'NONE',  #66 ) ;
#220 = AXIS2_PLACEMENT_3D ( 'NONE', #157, #139, #207 ) ;
#221 = CARTESIAN_POINT ( 'NONE',  ( 3.491481338843133355E-15, 1.012337853296752551E-33, 1.000000000000000000 ) ) ;
#222 = FACE_OUTER_BOUND ( 'NONE', #166, .T. ) ;
#223 = DIRECTION ( 'NONE',  ( 3.566536934050440041E-31, 1.000000000000000000, 1.003890900449542065E-16 ) ) ;
ENDSEC;
END-ISO-10303-21;
