ISO-10303-21;
HEADER;
FILE_DESCRIPTION (( 'STEP AP203' ),
    '1' );
FILE_NAME ('36932.step',
    '2021-10-07T13:46:47',
    ( '' ),
    ( '' ),
    'SwSTEP 2.0',
    'SolidWorks 2019',
    '' );
FILE_SCHEMA (( 'CONFIG_CONTROL_DESIGN' ));
ENDSEC;

DATA;
#1 = CC_DESIGN_DATE_AND_TIME_ASSIGNMENT ( #30, #155, ( #18 ) ) ;
#2 = AXIS2_PLACEMENT_3D ( 'NONE', #158, #121, #56 ) ;
#3 = FACE_OUTER_BOUND ( 'NONE', #182, .T. ) ;
#4 = DIRECTION ( 'NONE',  ( 0.0000000000000000000, 1.000000000000000000, 0.0000000000000000000 ) ) ;
#5 = FACE_OUTER_BOUND ( 'NONE', #14, .T. ) ;
#6 = CARTESIAN_POINT ( 'NONE',  ( 3.491481338843133355E-15, -1.224646799147353207E-16, 1.000000000000000000 ) ) ;
#7 = CARTESIAN_POINT ( 'NONE',  ( 8.312724066432455411E-15, -2.915711107172855043E-16, 2.380858798800508769 ) ) ;
#8 = CC_DESIGN_PERSON_AND_ORGANIZATION_ASSIGNMENT ( #94, #80, ( #175 ) ) ;
#9 =( NAMED_UNIT ( * ) SI_UNIT ( $, .STERADIAN. ) SOLID_ANGLE_UNIT ( ) );
#10 = PERSON_AND_ORGANIZATION ( #204, #207 ) ;
#11 = EDGE_CURVE ( 'NONE', #73, #73, #193, .T. ) ;
#12 = CIRCLE ( 'NONE', #113, 0.1299999999999999489 ) ;
#13 = PERSON_AND_ORGANIZATION ( #204, #207 ) ;
#14 = EDGE_LOOP ( 'NONE', ( #28 ) ) ;
#15 = PERSON_AND_ORGANIZATION ( #204, #207 ) ;
#16 = DIRECTION ( 'NONE',  ( -3.491481338843133355E-15, 1.224646799147353207E-16, -1.000000000000000000 ) ) ;
#17 = COORDINATED_UNIVERSAL_TIME_OFFSET ( 1, 0, .AHEAD. ) ;
#18 = PRODUCT_DEFINITION ( 'UNKNOWN', '', #175, #51 ) ;
#19 = PLANE ( 'NONE',  #24 ) ;
#20 = LOCAL_TIME ( 15, 46, 47.00000000000000000, #17 ) ;
#21 = DIRECTION ( 'NONE',  ( 3.491481338843133355E-15, -1.224646799147353207E-16, 1.000000000000000000 ) ) ;
#22 = FACE_BOUND ( 'NONE', #124, .T. ) ;
#23 = DIRECTION ( 'NONE',  ( -3.491481338843133355E-15, 1.224646799147353207E-16, -1.000000000000000000 ) ) ;
#24 = AXIS2_PLACEMENT_3D ( 'NONE', #205, #104, #25 ) ;
#25 = DIRECTION ( 'NONE',  ( -4.275831445896958607E-31, -1.000000000000000000, -1.224646799147353207E-16 ) ) ;
#26 = ORIENTED_EDGE ( 'NONE', *, *, #139, .T. ) ;
#27 = CALENDAR_DATE ( 2021, 7, 10 ) ;
#28 = ORIENTED_EDGE ( 'NONE', *, *, #139, .F. ) ;
#29 = APPROVAL_ROLE ( '' ) ;
#30 = DATE_AND_TIME ( #27, #220 ) ;
#31 = EDGE_LOOP ( 'NONE', ( #26 ) ) ;
#32 = CALENDAR_DATE ( 2021, 7, 10 ) ;
#33 = ORIENTED_EDGE ( 'NONE', *, *, #11, .T. ) ;
#34 = APPROVAL ( #129, 'UNSPECIFIED' ) ;
#35 = CARTESIAN_POINT ( 'NONE',  ( 1.043952920314096810E-13, 0.4999999999999963363, 29.89999999999999858 ) ) ;
#36 = DIRECTION ( 'NONE',  ( 3.703711431513918201E-31, 1.000000000000000000, 1.042502088928370520E-16 ) ) ;
#37 = AXIS2_PLACEMENT_3D ( 'NONE', #108, #16, #79 ) ;
#38 = DIRECTION ( 'NONE',  ( 0.0000000000000000000, 1.000000000000000000, 0.0000000000000000000 ) ) ;
#39 = CARTESIAN_POINT ( 'NONE',  ( 0.0000000000000000000, 0.0000000000000000000, 0.0000000000000000000 ) ) ;
#40 = FACE_OUTER_BOUND ( 'NONE', #177, .T. ) ;
#41 = EDGE_LOOP ( 'NONE', ( #93 ) ) ;
#42 = PERSON_AND_ORGANIZATION_ROLE ( 'creator' ) ;
#43 = ORIENTED_EDGE ( 'NONE', *, *, #88, .T. ) ;
#44 = CALENDAR_DATE ( 2021, 7, 10 ) ;
#45 = PERSON_AND_ORGANIZATION_ROLE ( 'creator' ) ;
#46 = CC_DESIGN_APPROVAL ( #179, ( #175 ) ) ;
#47 = ADVANCED_FACE ( 'NONE', ( #145, #131 ), #165, .T. ) ;
#48 = DATE_AND_TIME ( #197, #20 ) ;
#49 = APPROVAL_PERSON_ORGANIZATION ( #13, #191, #29 ) ;
#50 = FACE_OUTER_BOUND ( 'NONE', #95, .T. ) ;
#51 = DESIGN_CONTEXT ( 'detailed design', #196, 'design' ) ;
#52 = VERTEX_POINT ( 'NONE', #213 ) ;
#53 = CC_DESIGN_PERSON_AND_ORGANIZATION_ASSIGNMENT ( #10, #176, ( #195 ) ) ;
#54 = CARTESIAN_POINT ( 'NONE',  ( 3.491481338843133355E-15, 9.748438587302053240E-34, 1.000000000000000000 ) ) ;
#55 = DIRECTION ( 'NONE',  ( 0.0000000000000000000, 1.000000000000000000, 0.0000000000000000000 ) ) ;
#56 = DIRECTION ( 'NONE',  ( 1.000000000000000000, 0.0000000000000000000, 0.0000000000000000000 ) ) ;
#57 = CARTESIAN_POINT ( 'NONE',  ( 1.047444401652940007E-13, 0.3999999999999963585, 30.00000000000000000 ) ) ;
#58 = ORIENTED_EDGE ( 'NONE', *, *, #132, .T. ) ;
#59 = EDGE_LOOP ( 'NONE', ( #90 ) ) ;
#60 = MANIFOLD_SOLID_BREP ( 'Corps-Déplacer/Copier1[1]', #130 ) ;
#61 = PERSON_AND_ORGANIZATION ( #204, #207 ) ;
#62 = AXIS2_PLACEMENT_3D ( 'NONE', #74, #99, #87 ) ;
#63 = CIRCLE ( 'NONE', #62, 0.4999999999999966693 ) ;
#64 = VERTEX_POINT ( 'NONE', #57 ) ;
#65 = AXIS2_PLACEMENT_3D ( 'NONE', #125, #164, #144 ) ;
#66 = CC_DESIGN_DATE_AND_TIME_ASSIGNMENT ( #221, #222, ( #138 ) ) ;
#67 = CONICAL_SURFACE ( 'NONE', #98, 0.4000000000000000222, 0.7853981633974512766 ) ;
#68 = CARTESIAN_POINT ( 'NONE',  ( 2.727261730154625662E-16, -9.565946439735483158E-18, 0.07811188047358363917 ) ) ;
#69 = LOCAL_TIME ( 15, 46, 47.00000000000000000, #218 ) ;
#70 = VERTEX_POINT ( 'NONE', #135 ) ;
#71 = ADVANCED_FACE ( 'NONE', ( #215, #137 ), #116, .T. ) ;
#72 = PLANE ( 'NONE',  #212 ) ;
#73 = VERTEX_POINT ( 'NONE', #35 ) ;
#74 = CARTESIAN_POINT ( 'NONE',  ( 8.312724066432455411E-15, -2.915711107172855043E-16, 2.380858798800508769 ) ) ;
#75 = APPLICATION_PROTOCOL_DEFINITION ( 'international standard', 'config_control_design', 1994, #96 ) ;
#76 = APPLICATION_PROTOCOL_DEFINITION ( 'international standard', 'config_control_design', 1994, #196 ) ;
#77 = AXIS2_PLACEMENT_3D ( 'NONE', #136, #100, #36 ) ;
#78 = SECURITY_CLASSIFICATION_LEVEL ( 'unclassified' ) ;
#79 = DIRECTION ( 'NONE',  ( 0.0000000000000000000, 1.000000000000000000, 0.0000000000000000000 ) ) ;
#80 = PERSON_AND_ORGANIZATION_ROLE ( 'design_supplier' ) ;
#81 = ADVANCED_BREP_SHAPE_REPRESENTATION ( '36932', ( #60, #200, #2 ), #181 ) ;
#82 = DIRECTION ( 'NONE',  ( 0.0000000000000000000, 1.000000000000000000, 0.0000000000000000000 ) ) ;
#83 = ADVANCED_FACE ( 'NONE', ( #40 ), #150, .F. ) ;
#84 = LOCAL_TIME ( 15, 46, 47.00000000000000000, #126 ) ;
#85 = CARTESIAN_POINT ( 'NONE',  ( 1.047444401652940007E-13, -3.673940397442059178E-15, 30.00000000000000000 ) ) ;
#86 = DIRECTION ( 'NONE',  ( 4.275831445896958607E-31, 1.000000000000000000, 1.224646799147353207E-16 ) ) ;
#87 = DIRECTION ( 'NONE',  ( 0.0000000000000000000, 1.000000000000000000, 0.0000000000000000000 ) ) ;
#88 = EDGE_CURVE ( 'NONE', #134, #134, #63, .T. ) ;
#89 = APPROVAL_DATE_TIME ( #216, #191 ) ;
#90 = ORIENTED_EDGE ( 'NONE', *, *, #132, .F. ) ;
#91 = AXIS2_PLACEMENT_3D ( 'NONE', #39, #23, #206 ) ;
#92 = DATE_AND_TIME ( #32, #186 ) ;
#93 = ORIENTED_EDGE ( 'NONE', *, *, #88, .F. ) ;
#94 = PERSON_AND_ORGANIZATION ( #204, #207 ) ;
#95 = EDGE_LOOP ( 'NONE', ( #174 ) ) ;
#96 = APPLICATION_CONTEXT ( 'configuration controlled 3d designs of mechanical parts and assemblies' ) ;
#97 = PERSON_AND_ORGANIZATION ( #204, #207 ) ;
#98 = AXIS2_PLACEMENT_3D ( 'NONE', #85, #188, #4 ) ;
#99 = DIRECTION ( 'NONE',  ( -3.491481338843133355E-15, 1.224646799147353207E-16, -1.000000000000000000 ) ) ;
#100 = DIRECTION ( 'NONE',  ( -3.491481338843133355E-15, 1.224646799147353207E-16, -1.000000000000000000 ) ) ;
#101 = CIRCLE ( 'NONE', #77, 0.1299999999999998934 ) ;
#102 = CC_DESIGN_SECURITY_CLASSIFICATION ( #138, ( #175 ) ) ;
#103 = DIRECTION ( 'NONE',  ( 3.491481338843133355E-15, -1.224646799147353207E-16, 1.000000000000000000 ) ) ;
#104 = DIRECTION ( 'NONE',  ( 3.491481338843133355E-15, -1.224646799147353207E-16, 1.000000000000000000 ) ) ;
#105 = EDGE_CURVE ( 'NONE', #70, #70, #183, .T. ) ;
#106 = ORIENTED_EDGE ( 'NONE', *, *, #11, .F. ) ;
#107 = ADVANCED_FACE ( 'NONE', ( #154, #3 ), #133, .T. ) ;
#108 = CARTESIAN_POINT ( 'NONE',  ( 1.043952920314096810E-13, -3.661693929450586610E-15, 29.89999999999999858 ) ) ;
#109 = APPROVAL_ROLE ( '' ) ;
#110 =( LENGTH_UNIT ( ) NAMED_UNIT ( * ) SI_UNIT ( .MILLI., .METRE. ) );
#111 = APPROVAL_ROLE ( '' ) ;
#112 = APPROVAL_DATE_TIME ( #48, #34 ) ;
#113 = AXIS2_PLACEMENT_3D ( 'NONE', #115, #140, #82 ) ;
#114 = AXIS2_PLACEMENT_3D ( 'NONE', #153, #171, #55 ) ;
#115 = CARTESIAN_POINT ( 'NONE',  ( 3.491481338843133355E-15, -1.224646799147353207E-16, 1.000000000000000000 ) ) ;
#116 = CYLINDRICAL_SURFACE ( 'NONE', #91, 0.1299999999999998934 ) ;
#117 = CARTESIAN_POINT ( 'NONE',  ( 8.312724066432455411E-15, 0.4999999999999963363, 2.380858798800508769 ) ) ;
#118 = ADVANCED_FACE ( 'NONE', ( #5 ), #19, .T. ) ;
#119 = APPROVAL_STATUS ( 'not_yet_approved' ) ;
#120 = EDGE_LOOP ( 'NONE', ( #58 ) ) ;
#121 = DIRECTION ( 'NONE',  ( 0.0000000000000000000, 0.0000000000000000000, 1.000000000000000000 ) ) ;
#122 = ADVANCED_FACE ( 'NONE', ( #50 ), #72, .F. ) ;
#123 = ORIENTED_EDGE ( 'NONE', *, *, #169, .F. ) ;
#124 = EDGE_LOOP ( 'NONE', ( #214 ) ) ;
#125 = CARTESIAN_POINT ( 'NONE',  ( 0.0000000000000000000, 0.0000000000000000000, 0.0000000000000000000 ) ) ;
#126 = COORDINATED_UNIVERSAL_TIME_OFFSET ( 1, 0, .AHEAD. ) ;
#127 = EDGE_LOOP ( 'NONE', ( #211 ) ) ;
#128 = CC_DESIGN_APPROVAL ( #191, ( #18 ) ) ;
#129 = APPROVAL_STATUS ( 'not_yet_approved' ) ;
#130 = CLOSED_SHELL ( 'NONE', ( #122, #107, #47, #163, #83 ) ) ;
#131 = FACE_OUTER_BOUND ( 'NONE', #156, .T. ) ;
#132 = EDGE_CURVE ( 'NONE', #52, #52, #101, .T. ) ;
#133 = CONICAL_SURFACE ( 'NONE', #167, 0.4999999999999966693, 0.2617993877991428020 ) ;
#134 = VERTEX_POINT ( 'NONE', #117 ) ;
#135 = CARTESIAN_POINT ( 'NONE',  ( 3.491481338843133355E-15, 0.1299999999999998379, 1.000000000000000000 ) ) ;
#136 = CARTESIAN_POINT ( 'NONE',  ( 2.727261730154625662E-16, -9.565946439735483158E-18, 0.07811188047358363917 ) ) ;
#137 = FACE_OUTER_BOUND ( 'NONE', #31, .T. ) ;
#138 = SECURITY_CLASSIFICATION ( '', '', #78 ) ;
#139 = EDGE_CURVE ( 'NONE', #189, #189, #12, .T. ) ;
#140 = DIRECTION ( 'NONE',  ( -3.491481338843133355E-15, 1.224646799147353207E-16, -1.000000000000000000 ) ) ;
#141 = CARTESIAN_POINT ( 'NONE',  ( 3.491481338843133355E-15, 0.1299999999999998379, 1.000000000000000000 ) ) ;
#142 = APPROVAL_STATUS ( 'not_yet_approved' ) ;
#143 = EDGE_LOOP ( 'NONE', ( #106 ) ) ;
#144 = DIRECTION ( 'NONE',  ( 4.275831445896958607E-31, 1.000000000000000000, 1.224646799147353207E-16 ) ) ;
#145 = FACE_OUTER_BOUND ( 'NONE', #41, .T. ) ;
#146 = COORDINATED_UNIVERSAL_TIME_OFFSET ( 1, 0, .AHEAD. ) ;
#147 = CC_DESIGN_PERSON_AND_ORGANIZATION_ASSIGNMENT ( #61, #192, ( #138 ) ) ;
#148 = ADVANCED_FACE ( 'NONE', ( #208 ), #210, .T. ) ;
#149 = APPROVAL_PERSON_ORGANIZATION ( #159, #179, #109 ) ;
#150 = PLANE ( 'NONE',  #157 ) ;
#151 = UNCERTAINTY_MEASURE_WITH_UNIT (LENGTH_MEASURE( 1.000000000000000082E-05 ), #110, 'distance_accuracy_value', 'NONE');
#152 = CC_DESIGN_PERSON_AND_ORGANIZATION_ASSIGNMENT ( #190, #42, ( #18 ) ) ;
#153 = CARTESIAN_POINT ( 'NONE',  ( 1.047444401652940007E-13, -3.673940397442059178E-15, 30.00000000000000000 ) ) ;
#154 = FACE_BOUND ( 'NONE', #127, .T. ) ;
#155 = DATE_TIME_ROLE ( 'creation_date' ) ;
#156 = EDGE_LOOP ( 'NONE', ( #33 ) ) ;
#157 = AXIS2_PLACEMENT_3D ( 'NONE', #185, #168, #86 ) ;
#158 = CARTESIAN_POINT ( 'NONE',  ( 0.0000000000000000000, 0.0000000000000000000, 0.0000000000000000000 ) ) ;
#159 = PERSON_AND_ORGANIZATION ( #204, #207 ) ;
#160 = CC_DESIGN_PERSON_AND_ORGANIZATION_ASSIGNMENT ( #15, #45, ( #175 ) ) ;
#161 = CLOSED_SHELL ( 'NONE', ( #148, #71, #118 ) ) ;
#162 = SHAPE_DEFINITION_REPRESENTATION ( #172, #81 ) ;
#163 = ADVANCED_FACE ( 'NONE', ( #170, #22 ), #67, .T. ) ;
#164 = DIRECTION ( 'NONE',  ( -3.491481338843133355E-15, 1.224646799147353207E-16, -1.000000000000000000 ) ) ;
#165 = CYLINDRICAL_SURFACE ( 'NONE', #65, 0.4999999999999982792 ) ;
#166 = DIRECTION ( 'NONE',  ( 0.0000000000000000000, -1.000000000000000000, 0.0000000000000000000 ) ) ;
#167 = AXIS2_PLACEMENT_3D ( 'NONE', #7, #21, #166 ) ;
#168 = DIRECTION ( 'NONE',  ( -3.491481338843133355E-15, 1.224646799147353207E-16, -1.000000000000000000 ) ) ;
#169 = EDGE_CURVE ( 'NONE', #64, #64, #199, .T. ) ;
#170 = FACE_OUTER_BOUND ( 'NONE', #143, .T. ) ;
#171 = DIRECTION ( 'NONE',  ( -3.491481338843133355E-15, 1.224646799147353207E-16, -1.000000000000000000 ) ) ;
#172 = PRODUCT_DEFINITION_SHAPE ( 'NONE', 'NONE',  #18 ) ;
#173 = CALENDAR_DATE ( 2021, 7, 10 ) ;
#174 = ORIENTED_EDGE ( 'NONE', *, *, #105, .T. ) ;
#175 = PRODUCT_DEFINITION_FORMATION_WITH_SPECIFIED_SOURCE ( 'ANY', '', #195, .NOT_KNOWN. ) ;
#176 = PERSON_AND_ORGANIZATION_ROLE ( 'design_owner' ) ;
#177 = EDGE_LOOP ( 'NONE', ( #123 ) ) ;
#178 = MECHANICAL_CONTEXT ( 'NONE', #96, 'mechanical' ) ;
#179 = APPROVAL ( #142, 'UNSPECIFIED' ) ;
#180 =( NAMED_UNIT ( * ) PLANE_ANGLE_UNIT ( ) SI_UNIT ( $, .RADIAN. ) );
#181 =( GEOMETRIC_REPRESENTATION_CONTEXT ( 3 ) GLOBAL_UNCERTAINTY_ASSIGNED_CONTEXT ( ( #151 ) ) GLOBAL_UNIT_ASSIGNED_CONTEXT ( ( #110, #180, #9 ) ) REPRESENTATION_CONTEXT ( 'NONE', 'WORKASPACE' ) );
#182 = EDGE_LOOP ( 'NONE', ( #43 ) ) ;
#183 = CIRCLE ( 'NONE', #219, 0.1299999999999999489 ) ;
#184 = DIRECTION ( 'NONE',  ( -3.703711431513918201E-31, -1.000000000000000000, -1.042502088928370520E-16 ) ) ;
#185 = CARTESIAN_POINT ( 'NONE',  ( 1.047444401652940007E-13, 2.999519565323660135E-33, 30.00000000000000000 ) ) ;
#186 = LOCAL_TIME ( 15, 46, 47.00000000000000000, #146 ) ;
#187 = DIRECTION ( 'NONE',  ( -3.491481338843133355E-15, 1.224646799147353207E-16, -1.000000000000000000 ) ) ;
#188 = DIRECTION ( 'NONE',  ( -3.491481338843133355E-15, 1.224646799147353207E-16, -1.000000000000000000 ) ) ;
#189 = VERTEX_POINT ( 'NONE', #141 ) ;
#190 = PERSON_AND_ORGANIZATION ( #204, #207 ) ;
#191 = APPROVAL ( #119, 'UNSPECIFIED' ) ;
#192 = PERSON_AND_ORGANIZATION_ROLE ( 'classification_officer' ) ;
#193 = CIRCLE ( 'NONE', #37, 0.5000000000000000000 ) ;
#194 = APPROVAL_DATE_TIME ( #92, #179 ) ;
#195 = PRODUCT ( '36932', '36932', '', ( #178 ) ) ;
#196 = APPLICATION_CONTEXT ( 'configuration controlled 3d designs of mechanical parts and assemblies' ) ;
#197 = CALENDAR_DATE ( 2021, 7, 10 ) ;
#198 = AXIS2_PLACEMENT_3D ( 'NONE', #68, #103, #184 ) ;
#199 = CIRCLE ( 'NONE', #114, 0.4000000000000000222 ) ;
#200 = MANIFOLD_SOLID_BREP ( 'Corps-Déplacer/Copier1[2]', #161 ) ;
#201 = APPROVAL_PERSON_ORGANIZATION ( #97, #34, #111 ) ;
#202 = DIRECTION ( 'NONE',  ( 3.491481338843133355E-15, -1.224646799147353207E-16, 1.000000000000000000 ) ) ;
#203 = DIRECTION ( 'NONE',  ( -4.275831445896958607E-31, -1.000000000000000000, -1.224646799147353207E-16 ) ) ;
#204 = PERSON ( 'UNSPECIFIED', 'UNSPECIFIED', 'UNSPECIFIED', ('UNSPECIFIED'), ('UNSPECIFIED'), ('UNSPECIFIED') ) ;
#205 = CARTESIAN_POINT ( 'NONE',  ( 3.491481338843133355E-15, 9.748438587302053240E-34, 1.000000000000000000 ) ) ;
#206 = DIRECTION ( 'NONE',  ( 4.275831445896958607E-31, 1.000000000000000000, 1.224646799147353454E-16 ) ) ;
#207 = ORGANIZATION ( 'UNSPECIFIED', 'UNSPECIFIED', '' ) ;
#208 = FACE_OUTER_BOUND ( 'NONE', #120, .T. ) ;
#209 = PRODUCT_RELATED_PRODUCT_CATEGORY ( 'detail', '', ( #195 ) ) ;
#210 = CONICAL_SURFACE ( 'NONE', #198, 0.1299999999999998934, 1.029744258676649649 ) ;
#211 = ORIENTED_EDGE ( 'NONE', *, *, #105, .F. ) ;
#212 = AXIS2_PLACEMENT_3D ( 'NONE', #54, #202, #203 ) ;
#213 = CARTESIAN_POINT ( 'NONE',  ( 2.727261730154626155E-16, 0.1299999999999998934, 0.07811188047358365305 ) ) ;
#214 = ORIENTED_EDGE ( 'NONE', *, *, #169, .T. ) ;
#215 = FACE_OUTER_BOUND ( 'NONE', #59, .T. ) ;
#216 = DATE_AND_TIME ( #173, #84 ) ;
#217 = COORDINATED_UNIVERSAL_TIME_OFFSET ( 1, 0, .AHEAD. ) ;
#218 = COORDINATED_UNIVERSAL_TIME_OFFSET ( 1, 0, .AHEAD. ) ;
#219 = AXIS2_PLACEMENT_3D ( 'NONE', #6, #187, #38 ) ;
#220 = LOCAL_TIME ( 15, 46, 47.00000000000000000, #217 ) ;
#221 = DATE_AND_TIME ( #44, #69 ) ;
#222 = DATE_TIME_ROLE ( 'classification_date' ) ;
#223 = CC_DESIGN_APPROVAL ( #34, ( #138 ) ) ;
ENDSEC;
END-ISO-10303-21;
