ISO-10303-21;
HEADER;
FILE_DESCRIPTION (( 'STEP AP203' ),
    '1' );
FILE_NAME ('36931.step',
    '2021-10-07T13:46:46',
    ( '' ),
    ( '' ),
    'SwSTEP 2.0',
    'SolidWorks 2019',
    '' );
FILE_SCHEMA (( 'CONFIG_CONTROL_DESIGN' ));
ENDSEC;

DATA;
#1 = DATE_AND_TIME ( #206, #71 ) ;
#2 = CC_DESIGN_PERSON_AND_ORGANIZATION_ASSIGNMENT ( #99, #31, ( #160 ) ) ;
#3 = UNCERTAINTY_MEASURE_WITH_UNIT (LENGTH_MEASURE( 1.000000000000000082E-05 ), #77, 'distance_accuracy_value', 'NONE');
#4 = ORIENTED_EDGE ( 'NONE', *, *, #105, .F. ) ;
#5 = LOCAL_TIME ( 15, 46, 46.00000000000000000, #223 ) ;
#6 = ORIENTED_EDGE ( 'NONE', *, *, #194, .F. ) ;
#7 = ADVANCED_FACE ( 'NONE', ( #55, #109 ), #23, .T. ) ;
#8 = DIRECTION ( 'NONE',  ( -3.491481338843133355E-15, 1.224646799147353207E-16, -1.000000000000000000 ) ) ;
#9 = FACE_OUTER_BOUND ( 'NONE', #91, .T. ) ;
#10 = ADVANCED_FACE ( 'NONE', ( #126 ), #164, .F. ) ;
#11 = LOCAL_TIME ( 15, 46, 46.00000000000000000, #176 ) ;
#12 = DIRECTION ( 'NONE',  ( 0.0000000000000000000, 1.000000000000000000, 0.0000000000000000000 ) ) ;
#13 = DIRECTION ( 'NONE',  ( -3.851859888774476085E-31, -1.000000000000000000, -1.084202172485505667E-16 ) ) ;
#14 = DIRECTION ( 'NONE',  ( 0.0000000000000000000, 1.000000000000000000, 0.0000000000000000000 ) ) ;
#15 = AXIS2_PLACEMENT_3D ( 'NONE', #196, #182, #14 ) ;
#16 = COORDINATED_UNIVERSAL_TIME_OFFSET ( 1, 0, .AHEAD. ) ;
#17 = MECHANICAL_CONTEXT ( 'NONE', #98, 'mechanical' ) ;
#18 = CC_DESIGN_PERSON_AND_ORGANIZATION_ASSIGNMENT ( #155, #135, ( #87 ) ) ;
#19 = DATE_TIME_ROLE ( 'classification_date' ) ;
#20 = CIRCLE ( 'NONE', #15, 0.4000000000000000222 ) ;
#21 = APPROVAL_ROLE ( '' ) ;
#22 = CIRCLE ( 'NONE', #174, 0.1249999999999998612 ) ;
#23 = CYLINDRICAL_SURFACE ( 'NONE', #203, 0.4999999999999982792 ) ;
#24 = DIRECTION ( 'NONE',  ( 0.0000000000000000000, -1.000000000000000000, 0.0000000000000000000 ) ) ;
#25 = FACE_OUTER_BOUND ( 'NONE', #213, .T. ) ;
#26 = CARTESIAN_POINT ( 'NONE',  ( 0.0000000000000000000, 0.0000000000000000000, 0.0000000000000000000 ) ) ;
#27 = DIRECTION ( 'NONE',  ( -4.275831445896958607E-31, -1.000000000000000000, -1.224646799147353207E-16 ) ) ;
#28 = FACE_BOUND ( 'NONE', #124, .T. ) ;
#29 = PRODUCT_RELATED_PRODUCT_CATEGORY ( 'detail', '', ( #152 ) ) ;
#30 = CC_DESIGN_APPROVAL ( #136, ( #87 ) ) ;
#31 = PERSON_AND_ORGANIZATION_ROLE ( 'creator' ) ;
#32 = PERSON_AND_ORGANIZATION_ROLE ( 'design_owner' ) ;
#33 = CC_DESIGN_APPROVAL ( #159, ( #160 ) ) ;
#34 = PERSON_AND_ORGANIZATION ( #162, #165 ) ;
#35 = CONICAL_SURFACE ( 'NONE', #138, 0.4999999999999966693, 0.2617993877991427465 ) ;
#36 = DIRECTION ( 'NONE',  ( 3.491481338843133355E-15, -1.224646799147353207E-16, 1.000000000000000000 ) ) ;
#37 = DIRECTION ( 'NONE',  ( -3.491481338843133355E-15, 1.224646799147353207E-16, -1.000000000000000000 ) ) ;
#38 = DIRECTION ( 'NONE',  ( -3.491481338843133355E-15, 1.224646799147353207E-16, -1.000000000000000000 ) ) ;
#39 = VERTEX_POINT ( 'NONE', #43 ) ;
#40 = CARTESIAN_POINT ( 'NONE',  ( 3.491481338843134144E-15, -1.224646799147353454E-16, 1.000000000000000222 ) ) ;
#41 = VERTEX_POINT ( 'NONE', #79 ) ;
#42 = ORIENTED_EDGE ( 'NONE', *, *, #177, .T. ) ;
#43 = CARTESIAN_POINT ( 'NONE',  ( 8.377875995183662104E-15, 0.4999999999999963363, 2.399519052838353428 ) ) ;
#44 = APPROVAL_DATE_TIME ( #1, #119 ) ;
#45 = AXIS2_PLACEMENT_3D ( 'NONE', #74, #134, #70 ) ;
#46 = APPROVAL_DATE_TIME ( #153, #159 ) ;
#47 = EDGE_CURVE ( 'NONE', #39, #39, #90, .T. ) ;
#48 = PERSON_AND_ORGANIZATION ( #162, #165 ) ;
#49 = CALENDAR_DATE ( 2021, 7, 10 ) ;
#50 = DESIGN_CONTEXT ( 'detailed design', #189, 'design' ) ;
#51 = ADVANCED_FACE ( 'NONE', ( #25, #53 ), #114, .T. ) ;
#52 = EDGE_LOOP ( 'NONE', ( #68 ) ) ;
#53 = FACE_BOUND ( 'NONE', #117, .T. ) ;
#54 = DIRECTION ( 'NONE',  ( 0.0000000000000000000, 1.000000000000000000, 0.0000000000000000000 ) ) ;
#55 = FACE_OUTER_BOUND ( 'NONE', #214, .T. ) ;
#56 = CARTESIAN_POINT ( 'NONE',  ( 3.491481338843134144E-15, 0.1249999999999999445, 1.000000000000000222 ) ) ;
#57 = AXIS2_PLACEMENT_3D ( 'NONE', #142, #36, #13 ) ;
#58 = ORIENTED_EDGE ( 'NONE', *, *, #62, .T. ) ;
#59 = PERSON_AND_ORGANIZATION ( #162, #165 ) ;
#60 = CLOSED_SHELL ( 'NONE', ( #10, #123, #7, #51, #65 ) ) ;
#61 = APPROVAL_DATE_TIME ( #170, #136 ) ;
#62 = EDGE_CURVE ( 'NONE', #186, #186, #20, .T. ) ;
#63 = AXIS2_PLACEMENT_3D ( 'NONE', #166, #127, #200 ) ;
#64 = ORIENTED_EDGE ( 'NONE', *, *, #177, .F. ) ;
#65 = ADVANCED_FACE ( 'NONE', ( #108 ), #161, .F. ) ;
#66 = ORIENTED_EDGE ( 'NONE', *, *, #179, .F. ) ;
#67 =( GEOMETRIC_REPRESENTATION_CONTEXT ( 3 ) GLOBAL_UNCERTAINTY_ASSIGNED_CONTEXT ( ( #3 ) ) GLOBAL_UNIT_ASSIGNED_CONTEXT ( ( #77, #198, #93 ) ) REPRESENTATION_CONTEXT ( 'NONE', 'WORKASPACE' ) );
#68 = ORIENTED_EDGE ( 'NONE', *, *, #194, .T. ) ;
#69 = FACE_OUTER_BOUND ( 'NONE', #92, .T. ) ;
#70 = DIRECTION ( 'NONE',  ( 0.0000000000000000000, 1.000000000000000000, 0.0000000000000000000 ) ) ;
#71 = LOCAL_TIME ( 15, 46, 46.00000000000000000, #156 ) ;
#72 = PRODUCT_DEFINITION_SHAPE ( 'NONE', 'NONE',  #87 ) ;
#73 = DIRECTION ( 'NONE',  ( 3.491481338843133355E-15, -1.224646799147353207E-16, 1.000000000000000000 ) ) ;
#74 = CARTESIAN_POINT ( 'NONE',  ( 3.491481338843134144E-15, -1.224646799147353454E-16, 1.000000000000000222 ) ) ;
#75 = CARTESIAN_POINT ( 'NONE',  ( 1.047444401652940007E-13, 0.3999999999999963585, 30.00000000000000000 ) ) ;
#76 = DIRECTION ( 'NONE',  ( 0.0000000000000000000, 1.000000000000000000, 0.0000000000000000000 ) ) ;
#77 =( LENGTH_UNIT ( ) NAMED_UNIT ( * ) SI_UNIT ( .MILLI., .METRE. ) );
#78 = LOCAL_TIME ( 15, 46, 46.00000000000000000, #94 ) ;
#79 = CARTESIAN_POINT ( 'NONE',  ( 1.043952920314096810E-13, 0.4999999999999963363, 29.89999999999999858 ) ) ;
#80 = DATE_AND_TIME ( #97, #208 ) ;
#81 = PERSON_AND_ORGANIZATION ( #162, #165 ) ;
#82 = PERSON_AND_ORGANIZATION_ROLE ( 'classification_officer' ) ;
#83 = EDGE_LOOP ( 'NONE', ( #129 ) ) ;
#84 = AXIS2_PLACEMENT_3D ( 'NONE', #121, #8, #54 ) ;
#85 = ADVANCED_FACE ( 'NONE', ( #184 ), #122, .T. ) ;
#86 = CARTESIAN_POINT ( 'NONE',  ( 1.047444401652940007E-13, -3.673940397442059178E-15, 30.00000000000000000 ) ) ;
#87 = PRODUCT_DEFINITION ( 'UNKNOWN', '', #160, #50 ) ;
#88 = DIRECTION ( 'NONE',  ( -3.491481338843133355E-15, 1.224646799147353207E-16, -1.000000000000000000 ) ) ;
#89 = DIRECTION ( 'NONE',  ( -4.275831445896958607E-31, -1.000000000000000000, -1.224646799147353207E-16 ) ) ;
#90 = CIRCLE ( 'NONE', #84, 0.4999999999999966693 ) ;
#91 = EDGE_LOOP ( 'NONE', ( #42 ) ) ;
#92 = EDGE_LOOP ( 'NONE', ( #64 ) ) ;
#93 =( NAMED_UNIT ( * ) SI_UNIT ( $, .STERADIAN. ) SOLID_ANGLE_UNIT ( ) );
#94 = COORDINATED_UNIVERSAL_TIME_OFFSET ( 1, 0, .AHEAD. ) ;
#95 = CALENDAR_DATE ( 2021, 7, 10 ) ;
#96 = CIRCLE ( 'NONE', #45, 0.1250000000000000833 ) ;
#97 = CALENDAR_DATE ( 2021, 7, 10 ) ;
#98 = APPLICATION_CONTEXT ( 'configuration controlled 3d designs of mechanical parts and assemblies' ) ;
#99 = PERSON_AND_ORGANIZATION ( #162, #165 ) ;
#100 = ORIENTED_EDGE ( 'NONE', *, *, #47, .F. ) ;
#101 = APPROVAL_PERSON_ORGANIZATION ( #175, #159, #137 ) ;
#102 = CC_DESIGN_PERSON_AND_ORGANIZATION_ASSIGNMENT ( #59, #82, ( #185 ) ) ;
#103 = DIRECTION ( 'NONE',  ( -3.491481338843133355E-15, 1.224646799147353207E-16, -1.000000000000000000 ) ) ;
#104 = DIRECTION ( 'NONE',  ( 4.275831445896958607E-31, 1.000000000000000000, 1.224646799147353207E-16 ) ) ;
#105 = EDGE_CURVE ( 'NONE', #149, #149, #107, .T. ) ;
#106 = DIRECTION ( 'NONE',  ( 3.491481338843133355E-15, -1.224646799147353207E-16, 1.000000000000000000 ) ) ;
#107 = CIRCLE ( 'NONE', #140, 0.1250000000000000833 ) ;
#108 = FACE_OUTER_BOUND ( 'NONE', #116, .T. ) ;
#109 = FACE_OUTER_BOUND ( 'NONE', #52, .T. ) ;
#110 = VERTEX_POINT ( 'NONE', #204 ) ;
#111 = AXIS2_PLACEMENT_3D ( 'NONE', #219, #88, #163 ) ;
#112 = SHAPE_DEFINITION_REPRESENTATION ( #72, #130 ) ;
#113 = APPROVAL_ROLE ( '' ) ;
#114 = CONICAL_SURFACE ( 'NONE', #190, 0.4000000000000000222, 0.7853981633974512766 ) ;
#115 = DATE_TIME_ROLE ( 'creation_date' ) ;
#116 = EDGE_LOOP ( 'NONE', ( #139 ) ) ;
#117 = EDGE_LOOP ( 'NONE', ( #58 ) ) ;
#118 = MANIFOLD_SOLID_BREP ( 'Corps-Déplacer/Copier1[2]', #212 ) ;
#119 = APPROVAL ( #132, 'UNSPECIFIED' ) ;
#120 = MANIFOLD_SOLID_BREP ( 'Corps-Déplacer/Copier1[1]', #60 ) ;
#121 = CARTESIAN_POINT ( 'NONE',  ( 8.377875995183662104E-15, -2.938563327551578251E-16, 2.399519052838353428 ) ) ;
#122 = CONICAL_SURFACE ( 'NONE', #57, 0.1249999999999998612, 1.029744258676649649 ) ;
#123 = ADVANCED_FACE ( 'NONE', ( #28, #183 ), #35, .T. ) ;
#124 = EDGE_LOOP ( 'NONE', ( #4 ) ) ;
#125 = VERTEX_POINT ( 'NONE', #145 ) ;
#126 = FACE_OUTER_BOUND ( 'NONE', #83, .T. ) ;
#127 = DIRECTION ( 'NONE',  ( -3.491481338843133355E-15, 1.224646799147353207E-16, -1.000000000000000000 ) ) ;
#128 = CIRCLE ( 'NONE', #63, 0.5000000000000000000 ) ;
#129 = ORIENTED_EDGE ( 'NONE', *, *, #105, .T. ) ;
#130 = ADVANCED_BREP_SHAPE_REPRESENTATION ( '36931', ( #120, #118, #216 ), #67 ) ;
#131 = DIRECTION ( 'NONE',  ( 0.0000000000000000000, 0.0000000000000000000, 1.000000000000000000 ) ) ;
#132 = APPROVAL_STATUS ( 'not_yet_approved' ) ;
#133 = CC_DESIGN_SECURITY_CLASSIFICATION ( #185, ( #160 ) ) ;
#134 = DIRECTION ( 'NONE',  ( -3.491481338843133355E-15, 1.224646799147353207E-16, -1.000000000000000000 ) ) ;
#135 = PERSON_AND_ORGANIZATION_ROLE ( 'creator' ) ;
#136 = APPROVAL ( #222, 'UNSPECIFIED' ) ;
#137 = APPROVAL_ROLE ( '' ) ;
#138 = AXIS2_PLACEMENT_3D ( 'NONE', #150, #73, #24 ) ;
#139 = ORIENTED_EDGE ( 'NONE', *, *, #62, .F. ) ;
#140 = AXIS2_PLACEMENT_3D ( 'NONE', #40, #103, #76 ) ;
#141 = CC_DESIGN_DATE_AND_TIME_ASSIGNMENT ( #173, #19, ( #185 ) ) ;
#142 = CARTESIAN_POINT ( 'NONE',  ( 2.622367048225601351E-16, -9.198025422822579663E-18, 0.07510757737844579729 ) ) ;
#143 = PLANE ( 'NONE',  #169 ) ;
#144 = APPROVAL_PERSON_ORGANIZATION ( #207, #136, #113 ) ;
#145 = CARTESIAN_POINT ( 'NONE',  ( 2.622367048225601844E-16, 0.1249999999999998612, 0.07510757737844581117 ) ) ;
#146 = CARTESIAN_POINT ( 'NONE',  ( 2.622367048225601351E-16, -9.198025422822579663E-18, 0.07510757737844579729 ) ) ;
#147 = CYLINDRICAL_SURFACE ( 'NONE', #111, 0.1249999999999999722 ) ;
#148 = CARTESIAN_POINT ( 'NONE',  ( 3.491481338843133355E-15, 9.373498641636599786E-34, 1.000000000000000000 ) ) ;
#149 = VERTEX_POINT ( 'NONE', #56 ) ;
#150 = CARTESIAN_POINT ( 'NONE',  ( 8.377875995183662104E-15, -2.938563327551578251E-16, 2.399519052838353428 ) ) ;
#151 = CC_DESIGN_PERSON_AND_ORGANIZATION_ASSIGNMENT ( #48, #32, ( #152 ) ) ;
#152 = PRODUCT ( '36931', '36931', '', ( #17 ) ) ;
#153 = DATE_AND_TIME ( #191, #5 ) ;
#154 = ADVANCED_FACE ( 'NONE', ( #221, #9 ), #147, .T. ) ;
#155 = PERSON_AND_ORGANIZATION ( #162, #165 ) ;
#156 = COORDINATED_UNIVERSAL_TIME_OFFSET ( 1, 0, .AHEAD. ) ;
#157 = DIRECTION ( 'NONE',  ( 1.000000000000000000, 0.0000000000000000000, 0.0000000000000000000 ) ) ;
#158 = APPROVAL_PERSON_ORGANIZATION ( #34, #119, #21 ) ;
#159 = APPROVAL ( #192, 'UNSPECIFIED' ) ;
#160 = PRODUCT_DEFINITION_FORMATION_WITH_SPECIFIED_SOURCE ( 'ANY', '', #152, .NOT_KNOWN. ) ;
#161 = PLANE ( 'NONE',  #181 ) ;
#162 = PERSON ( 'UNSPECIFIED', 'UNSPECIFIED', 'UNSPECIFIED', ('UNSPECIFIED'), ('UNSPECIFIED'), ('UNSPECIFIED') ) ;
#163 = DIRECTION ( 'NONE',  ( 4.275831445896958607E-31, 1.000000000000000000, 1.224646799147353207E-16 ) ) ;
#164 = PLANE ( 'NONE',  #178 ) ;
#165 = ORGANIZATION ( 'UNSPECIFIED', 'UNSPECIFIED', '' ) ;
#166 = CARTESIAN_POINT ( 'NONE',  ( 1.043952920314096810E-13, -3.661693929450586610E-15, 29.89999999999999858 ) ) ;
#167 = ADVANCED_FACE ( 'NONE', ( #69 ), #143, .T. ) ;
#168 = EDGE_LOOP ( 'NONE', ( #197 ) ) ;
#169 = AXIS2_PLACEMENT_3D ( 'NONE', #205, #106, #27 ) ;
#170 = DATE_AND_TIME ( #49, #78 ) ;
#171 = APPLICATION_PROTOCOL_DEFINITION ( 'international standard', 'config_control_design', 1994, #189 ) ;
#172 = DIRECTION ( 'NONE',  ( -3.491481338843133355E-15, 1.224646799147353207E-16, -1.000000000000000000 ) ) ;
#173 = DATE_AND_TIME ( #95, #11 ) ;
#174 = AXIS2_PLACEMENT_3D ( 'NONE', #146, #172, #210 ) ;
#175 = PERSON_AND_ORGANIZATION ( #162, #165 ) ;
#176 = COORDINATED_UNIVERSAL_TIME_OFFSET ( 1, 0, .AHEAD. ) ;
#177 = EDGE_CURVE ( 'NONE', #110, #110, #96, .T. ) ;
#178 = AXIS2_PLACEMENT_3D ( 'NONE', #148, #199, #89 ) ;
#179 = EDGE_CURVE ( 'NONE', #125, #125, #22, .T. ) ;
#180 = EDGE_LOOP ( 'NONE', ( #66 ) ) ;
#181 = AXIS2_PLACEMENT_3D ( 'NONE', #202, #188, #220 ) ;
#182 = DIRECTION ( 'NONE',  ( -3.491481338843133355E-15, 1.224646799147353207E-16, -1.000000000000000000 ) ) ;
#183 = FACE_OUTER_BOUND ( 'NONE', #168, .T. ) ;
#184 = FACE_OUTER_BOUND ( 'NONE', #193, .T. ) ;
#185 = SECURITY_CLASSIFICATION ( '', '', #211 ) ;
#186 = VERTEX_POINT ( 'NONE', #75 ) ;
#187 = CC_DESIGN_PERSON_AND_ORGANIZATION_ASSIGNMENT ( #81, #209, ( #160 ) ) ;
#188 = DIRECTION ( 'NONE',  ( -3.491481338843133355E-15, 1.224646799147353207E-16, -1.000000000000000000 ) ) ;
#189 = APPLICATION_CONTEXT ( 'configuration controlled 3d designs of mechanical parts and assemblies' ) ;
#190 = AXIS2_PLACEMENT_3D ( 'NONE', #86, #38, #12 ) ;
#191 = CALENDAR_DATE ( 2021, 7, 10 ) ;
#192 = APPROVAL_STATUS ( 'not_yet_approved' ) ;
#193 = EDGE_LOOP ( 'NONE', ( #215 ) ) ;
#194 = EDGE_CURVE ( 'NONE', #41, #41, #128, .T. ) ;
#195 = CC_DESIGN_APPROVAL ( #119, ( #185 ) ) ;
#196 = CARTESIAN_POINT ( 'NONE',  ( 1.047444401652940007E-13, -3.673940397442059178E-15, 30.00000000000000000 ) ) ;
#197 = ORIENTED_EDGE ( 'NONE', *, *, #47, .T. ) ;
#198 =( NAMED_UNIT ( * ) PLANE_ANGLE_UNIT ( ) SI_UNIT ( $, .RADIAN. ) );
#199 = DIRECTION ( 'NONE',  ( 3.491481338843133355E-15, -1.224646799147353207E-16, 1.000000000000000000 ) ) ;
#200 = DIRECTION ( 'NONE',  ( 0.0000000000000000000, 1.000000000000000000, 0.0000000000000000000 ) ) ;
#201 = CC_DESIGN_DATE_AND_TIME_ASSIGNMENT ( #80, #115, ( #87 ) ) ;
#202 = CARTESIAN_POINT ( 'NONE',  ( 1.047444401652940007E-13, 2.999519565323660135E-33, 30.00000000000000000 ) ) ;
#203 = AXIS2_PLACEMENT_3D ( 'NONE', #217, #37, #104 ) ;
#204 = CARTESIAN_POINT ( 'NONE',  ( 3.491481338843134144E-15, 0.1249999999999999445, 1.000000000000000222 ) ) ;
#205 = CARTESIAN_POINT ( 'NONE',  ( 3.491481338843133355E-15, 9.373498641636599786E-34, 1.000000000000000000 ) ) ;
#206 = CALENDAR_DATE ( 2021, 7, 10 ) ;
#207 = PERSON_AND_ORGANIZATION ( #162, #165 ) ;
#208 = LOCAL_TIME ( 15, 46, 46.00000000000000000, #16 ) ;
#209 = PERSON_AND_ORGANIZATION_ROLE ( 'design_supplier' ) ;
#210 = DIRECTION ( 'NONE',  ( 3.851859888774476085E-31, 1.000000000000000000, 1.084202172485505667E-16 ) ) ;
#211 = SECURITY_CLASSIFICATION_LEVEL ( 'unclassified' ) ;
#212 = CLOSED_SHELL ( 'NONE', ( #85, #154, #167 ) ) ;
#213 = EDGE_LOOP ( 'NONE', ( #6 ) ) ;
#214 = EDGE_LOOP ( 'NONE', ( #100 ) ) ;
#215 = ORIENTED_EDGE ( 'NONE', *, *, #179, .T. ) ;
#216 = AXIS2_PLACEMENT_3D ( 'NONE', #26, #131, #157 ) ;
#217 = CARTESIAN_POINT ( 'NONE',  ( 0.0000000000000000000, 0.0000000000000000000, 0.0000000000000000000 ) ) ;
#218 = APPLICATION_PROTOCOL_DEFINITION ( 'international standard', 'config_control_design', 1994, #98 ) ;
#219 = CARTESIAN_POINT ( 'NONE',  ( 0.0000000000000000000, 0.0000000000000000000, 0.0000000000000000000 ) ) ;
#220 = DIRECTION ( 'NONE',  ( 4.275831445896958607E-31, 1.000000000000000000, 1.224646799147353207E-16 ) ) ;
#221 = FACE_OUTER_BOUND ( 'NONE', #180, .T. ) ;
#222 = APPROVAL_STATUS ( 'not_yet_approved' ) ;
#223 = COORDINATED_UNIVERSAL_TIME_OFFSET ( 1, 0, .AHEAD. ) ;
ENDSEC;
END-ISO-10303-21;
