ISO-10303-21;
HEADER;
FILE_DESCRIPTION (( 'STEP AP203' ),
    '1' );
FILE_NAME ('36930.step',
    '2021-10-07T13:46:46',
    ( '' ),
    ( '' ),
    'SwSTEP 2.0',
    'SolidWorks 2019',
    '' );
FILE_SCHEMA (( 'CONFIG_CONTROL_DESIGN' ));
ENDSEC;

DATA;
#1 = DIRECTION ( 'NONE',  ( -3.491481338843133355E-15, 1.224646799147353207E-16, -1.000000000000000000 ) ) ;
#2 =( GEOMETRIC_REPRESENTATION_CONTEXT ( 3 ) GLOBAL_UNCERTAINTY_ASSIGNED_CONTEXT ( ( #33 ) ) GLOBAL_UNIT_ASSIGNED_CONTEXT ( ( #196, #59, #25 ) ) REPRESENTATION_CONTEXT ( 'NONE', 'WORKASPACE' ) );
#3 = DATE_AND_TIME ( #116, #101 ) ;
#4 = PERSON_AND_ORGANIZATION ( #155, #40 ) ;
#5 = VERTEX_POINT ( 'NONE', #111 ) ;
#6 = PERSON_AND_ORGANIZATION_ROLE ( 'creator' ) ;
#7 = CARTESIAN_POINT ( 'NONE',  ( 8.443027923934870374E-15, 0.4999999999999963363, 2.418179306876198975 ) ) ;
#8 = CIRCLE ( 'NONE', #181, 0.5000000000000000000 ) ;
#9 = EDGE_LOOP ( 'NONE', ( #126 ) ) ;
#10 = COORDINATED_UNIVERSAL_TIME_OFFSET ( 1, 0, .AHEAD. ) ;
#11 = APPROVAL_STATUS ( 'not_yet_approved' ) ;
#12 = ORIENTED_EDGE ( 'NONE', *, *, #172, .F. ) ;
#13 = PRODUCT_DEFINITION_SHAPE ( 'NONE', 'NONE',  #45 ) ;
#14 = EDGE_CURVE ( 'NONE', #132, #132, #145, .T. ) ;
#15 = FACE_OUTER_BOUND ( 'NONE', #65, .T. ) ;
#16 = FACE_OUTER_BOUND ( 'NONE', #207, .T. ) ;
#17 = CONICAL_SURFACE ( 'NONE', #138, 0.4000000000000000222, 0.7853981633974512766 ) ;
#18 = CONICAL_SURFACE ( 'NONE', #160, 0.1199999999999998845, 1.029744258676649871 ) ;
#19 = CARTESIAN_POINT ( 'NONE',  ( 8.443027923934870374E-15, -2.961415547930301951E-16, 2.418179306876198975 ) ) ;
#20 = CC_DESIGN_PERSON_AND_ORGANIZATION_ASSIGNMENT ( #80, #110, ( #105 ) ) ;
#21 = EDGE_LOOP ( 'NONE', ( #187 ) ) ;
#22 = ADVANCED_BREP_SHAPE_REPRESENTATION ( '36930', ( #137, #52, #36 ), #2 ) ;
#23 = COORDINATED_UNIVERSAL_TIME_OFFSET ( 1, 0, .AHEAD. ) ;
#24 = ADVANCED_FACE ( 'NONE', ( #144 ), #176, .T. ) ;
#25 =( NAMED_UNIT ( * ) SI_UNIT ( $, .STERADIAN. ) SOLID_ANGLE_UNIT ( ) );
#26 = CALENDAR_DATE ( 2021, 7, 10 ) ;
#27 = PERSON_AND_ORGANIZATION_ROLE ( 'creator' ) ;
#28 = AXIS2_PLACEMENT_3D ( 'NONE', #107, #223, #189 ) ;
#29 = EDGE_LOOP ( 'NONE', ( #104 ) ) ;
#30 = APPROVAL_PERSON_ORGANIZATION ( #93, #211, #198 ) ;
#31 = DIRECTION ( 'NONE',  ( -3.491481338843133355E-15, 1.224646799147353207E-16, -1.000000000000000000 ) ) ;
#32 = CARTESIAN_POINT ( 'NONE',  ( 3.491481338843134144E-15, -1.224646799147353454E-16, 1.000000000000000222 ) ) ;
#33 = UNCERTAINTY_MEASURE_WITH_UNIT (LENGTH_MEASURE( 1.000000000000000082E-05 ), #196, 'distance_accuracy_value', 'NONE');
#34 = ORIENTED_EDGE ( 'NONE', *, *, #172, .T. ) ;
#35 = CARTESIAN_POINT ( 'NONE',  ( 1.047444401652940007E-13, -3.673940397442059178E-15, 30.00000000000000000 ) ) ;
#36 = AXIS2_PLACEMENT_3D ( 'NONE', #71, #209, #56 ) ;
#37 = CYLINDRICAL_SURFACE ( 'NONE', #28, 0.1199999999999999400 ) ;
#38 = DIRECTION ( 'NONE',  ( 3.491481338843133355E-15, -1.224646799147353207E-16, 1.000000000000000000 ) ) ;
#39 = COORDINATED_UNIVERSAL_TIME_OFFSET ( 1, 0, .AHEAD. ) ;
#40 = ORGANIZATION ( 'UNSPECIFIED', 'UNSPECIFIED', '' ) ;
#41 = EDGE_CURVE ( 'NONE', #5, #5, #89, .T. ) ;
#42 = FACE_OUTER_BOUND ( 'NONE', #21, .T. ) ;
#43 = EDGE_LOOP ( 'NONE', ( #102 ) ) ;
#44 = APPROVAL_ROLE ( '' ) ;
#45 = PRODUCT_DEFINITION ( 'UNKNOWN', '', #105, #175 ) ;
#46 = ADVANCED_FACE ( 'NONE', ( #16 ), #18, .T. ) ;
#47 = ORIENTED_EDGE ( 'NONE', *, *, #41, .T. ) ;
#48 = ORIENTED_EDGE ( 'NONE', *, *, #188, .T. ) ;
#49 = CC_DESIGN_PERSON_AND_ORGANIZATION_ASSIGNMENT ( #167, #27, ( #45 ) ) ;
#50 = FACE_OUTER_BOUND ( 'NONE', #43, .T. ) ;
#51 = FACE_OUTER_BOUND ( 'NONE', #193, .T. ) ;
#52 = MANIFOLD_SOLID_BREP ( 'Corps-Déplacer/Copier1[2]', #217 ) ;
#53 = ORIENTED_EDGE ( 'NONE', *, *, #164, .F. ) ;
#54 = APPROVAL ( #73, 'UNSPECIFIED' ) ;
#55 = CALENDAR_DATE ( 2021, 7, 10 ) ;
#56 = DIRECTION ( 'NONE',  ( 1.000000000000000000, 0.0000000000000000000, 0.0000000000000000000 ) ) ;
#57 = EDGE_CURVE ( 'NONE', #77, #77, #122, .T. ) ;
#58 = PERSON_AND_ORGANIZATION ( #155, #40 ) ;
#59 =( NAMED_UNIT ( * ) PLANE_ANGLE_UNIT ( ) SI_UNIT ( $, .RADIAN. ) );
#60 = AXIS2_PLACEMENT_3D ( 'NONE', #19, #123, #63 ) ;
#61 = COORDINATED_UNIVERSAL_TIME_OFFSET ( 1, 0, .AHEAD. ) ;
#62 = SHAPE_DEFINITION_REPRESENTATION ( #13, #22 ) ;
#63 = DIRECTION ( 'NONE',  ( 0.0000000000000000000, 1.000000000000000000, 0.0000000000000000000 ) ) ;
#64 = DIRECTION ( 'NONE',  ( -4.275831445896958607E-31, -1.000000000000000000, -1.224646799147353207E-16 ) ) ;
#65 = EDGE_LOOP ( 'NONE', ( #34 ) ) ;
#66 = DIRECTION ( 'NONE',  ( 0.0000000000000000000, 1.000000000000000000, 0.0000000000000000000 ) ) ;
#67 = FACE_OUTER_BOUND ( 'NONE', #9, .T. ) ;
#68 = FACE_OUTER_BOUND ( 'NONE', #90, .T. ) ;
#69 = APPROVAL ( #161, 'UNSPECIFIED' ) ;
#70 = CC_DESIGN_APPROVAL ( #69, ( #105 ) ) ;
#71 = CARTESIAN_POINT ( 'NONE',  ( 0.0000000000000000000, 0.0000000000000000000, 0.0000000000000000000 ) ) ;
#72 = AXIS2_PLACEMENT_3D ( 'NONE', #35, #1, #174 ) ;
#73 = APPROVAL_STATUS ( 'not_yet_approved' ) ;
#74 = DIRECTION ( 'NONE',  ( -4.275831445896958607E-31, -1.000000000000000000, -1.224646799147353207E-16 ) ) ;
#75 = CARTESIAN_POINT ( 'NONE',  ( 3.491481338843134144E-15, 0.1199999999999998845, 1.000000000000000222 ) ) ;
#76 = PRODUCT_RELATED_PRODUCT_CATEGORY ( 'detail', '', ( #192 ) ) ;
#77 = VERTEX_POINT ( 'NONE', #92 ) ;
#78 = AXIS2_PLACEMENT_3D ( 'NONE', #32, #142, #103 ) ;
#79 = DATE_AND_TIME ( #55, #168 ) ;
#80 = PERSON_AND_ORGANIZATION ( #155, #40 ) ;
#81 = AXIS2_PLACEMENT_3D ( 'NONE', #91, #191, #64 ) ;
#82 = ADVANCED_FACE ( 'NONE', ( #68, #15 ), #37, .T. ) ;
#83 = CONICAL_SURFACE ( 'NONE', #208, 0.4999999999999966693, 0.2617993877991428020 ) ;
#84 = APPLICATION_CONTEXT ( 'configuration controlled 3d designs of mechanical parts and assemblies' ) ;
#85 = LOCAL_TIME ( 15, 46, 46.00000000000000000, #183 ) ;
#86 = CARTESIAN_POINT ( 'NONE',  ( 3.491481338843134144E-15, -1.224646799147353454E-16, 1.000000000000000222 ) ) ;
#87 = CARTESIAN_POINT ( 'NONE',  ( 1.043952920314096810E-13, -3.661693929450586610E-15, 29.89999999999999858 ) ) ;
#88 = APPROVAL_PERSON_ORGANIZATION ( #182, #54, #99 ) ;
#89 = CIRCLE ( 'NONE', #214, 0.1199999999999998845 ) ;
#90 = EDGE_LOOP ( 'NONE', ( #115 ) ) ;
#91 = CARTESIAN_POINT ( 'NONE',  ( 3.491481338843133355E-15, 8.998558695971127515E-34, 1.000000000000000000 ) ) ;
#92 = CARTESIAN_POINT ( 'NONE',  ( 3.491481338843134144E-15, 0.1199999999999998845, 1.000000000000000222 ) ) ;
#93 = PERSON_AND_ORGANIZATION ( #155, #40 ) ;
#94 = DIRECTION ( 'NONE',  ( 3.491481338843133355E-15, -1.224646799147353207E-16, 1.000000000000000000 ) ) ;
#95 = DIRECTION ( 'NONE',  ( 0.0000000000000000000, -1.000000000000000000, 0.0000000000000000000 ) ) ;
#96 = PERSON_AND_ORGANIZATION_ROLE ( 'design_owner' ) ;
#97 = CIRCLE ( 'NONE', #60, 0.4999999999999966693 ) ;
#98 = CC_DESIGN_DATE_AND_TIME_ASSIGNMENT ( #163, #134, ( #136 ) ) ;
#99 = APPROVAL_ROLE ( '' ) ;
#100 = CC_DESIGN_PERSON_AND_ORGANIZATION_ASSIGNMENT ( #58, #6, ( #105 ) ) ;
#101 = LOCAL_TIME ( 15, 46, 46.00000000000000000, #61 ) ;
#102 = ORIENTED_EDGE ( 'NONE', *, *, #164, .T. ) ;
#103 = DIRECTION ( 'NONE',  ( 0.0000000000000000000, 1.000000000000000000, 0.0000000000000000000 ) ) ;
#104 = ORIENTED_EDGE ( 'NONE', *, *, #14, .T. ) ;
#105 = PRODUCT_DEFINITION_FORMATION_WITH_SPECIFIED_SOURCE ( 'ANY', '', #192, .NOT_KNOWN. ) ;
#106 = CARTESIAN_POINT ( 'NONE',  ( 2.517472366296576548E-16, -8.830104405909673087E-18, 0.07210327428330794153 ) ) ;
#107 = CARTESIAN_POINT ( 'NONE',  ( 0.0000000000000000000, 0.0000000000000000000, 0.0000000000000000000 ) ) ;
#108 = CALENDAR_DATE ( 2021, 7, 10 ) ;
#109 = MECHANICAL_CONTEXT ( 'NONE', #84, 'mechanical' ) ;
#110 = PERSON_AND_ORGANIZATION_ROLE ( 'design_supplier' ) ;
#111 = CARTESIAN_POINT ( 'NONE',  ( 2.517472366296577041E-16, 0.1199999999999998707, 0.07210327428330795541 ) ) ;
#112 = PLANE ( 'NONE',  #117 ) ;
#113 = DATE_TIME_ROLE ( 'creation_date' ) ;
#114 = ADVANCED_FACE ( 'NONE', ( #67, #220 ), #17, .T. ) ;
#115 = ORIENTED_EDGE ( 'NONE', *, *, #41, .F. ) ;
#116 = CALENDAR_DATE ( 2021, 7, 10 ) ;
#117 = AXIS2_PLACEMENT_3D ( 'NONE', #130, #38, #74 ) ;
#118 = AXIS2_PLACEMENT_3D ( 'NONE', #86, #154, #120 ) ;
#119 = CC_DESIGN_DATE_AND_TIME_ASSIGNMENT ( #3, #113, ( #45 ) ) ;
#120 = DIRECTION ( 'NONE',  ( 0.0000000000000000000, 1.000000000000000000, 0.0000000000000000000 ) ) ;
#121 = LOCAL_TIME ( 15, 46, 46.00000000000000000, #23 ) ;
#122 = CIRCLE ( 'NONE', #118, 0.1200000000000000094 ) ;
#123 = DIRECTION ( 'NONE',  ( -3.491481338843133355E-15, 1.224646799147353207E-16, -1.000000000000000000 ) ) ;
#124 = ADVANCED_FACE ( 'NONE', ( #141, #51 ), #143, .T. ) ;
#125 = CARTESIAN_POINT ( 'NONE',  ( 8.443027923934870374E-15, -2.961415547930301951E-16, 2.418179306876198975 ) ) ;
#126 = ORIENTED_EDGE ( 'NONE', *, *, #188, .F. ) ;
#127 = DIRECTION ( 'NONE',  ( 4.012354050806745156E-31, 1.000000000000000000, 1.129377263005734854E-16 ) ) ;
#128 = DATE_AND_TIME ( #216, #121 ) ;
#129 = APPLICATION_PROTOCOL_DEFINITION ( 'international standard', 'config_control_design', 1994, #84 ) ;
#130 = CARTESIAN_POINT ( 'NONE',  ( 3.491481338843133355E-15, 8.998558695971127515E-34, 1.000000000000000000 ) ) ;
#131 = APPROVAL_PERSON_ORGANIZATION ( #186, #69, #44 ) ;
#132 = VERTEX_POINT ( 'NONE', #194 ) ;
#133 = CC_DESIGN_PERSON_AND_ORGANIZATION_ASSIGNMENT ( #4, #96, ( #192 ) ) ;
#134 = DATE_TIME_ROLE ( 'classification_date' ) ;
#135 = EDGE_LOOP ( 'NONE', ( #53 ) ) ;
#136 = SECURITY_CLASSIFICATION ( '', '', #180 ) ;
#137 = MANIFOLD_SOLID_BREP ( 'Corps-Déplacer/Copier1[1]', #157 ) ;
#138 = AXIS2_PLACEMENT_3D ( 'NONE', #179, #153, #66 ) ;
#139 = CC_DESIGN_PERSON_AND_ORGANIZATION_ASSIGNMENT ( #152, #151, ( #136 ) ) ;
#140 = DIRECTION ( 'NONE',  ( 3.491481338843133355E-15, -1.224646799147353207E-16, 1.000000000000000000 ) ) ;
#141 = FACE_OUTER_BOUND ( 'NONE', #135, .T. ) ;
#142 = DIRECTION ( 'NONE',  ( -3.491481338843133355E-15, 1.224646799147353207E-16, -1.000000000000000000 ) ) ;
#143 = CYLINDRICAL_SURFACE ( 'NONE', #197, 0.4999999999999982792 ) ;
#144 = FACE_OUTER_BOUND ( 'NONE', #159, .T. ) ;
#145 = CIRCLE ( 'NONE', #72, 0.4000000000000000222 ) ;
#146 = DATE_AND_TIME ( #108, #149 ) ;
#147 = VERTEX_POINT ( 'NONE', #75 ) ;
#148 = DIRECTION ( 'NONE',  ( -3.491481338843133355E-15, 1.224646799147353207E-16, -1.000000000000000000 ) ) ;
#149 = LOCAL_TIME ( 15, 46, 46.00000000000000000, #10 ) ;
#150 = CARTESIAN_POINT ( 'NONE',  ( 1.047444401652940007E-13, 2.999519565323660135E-33, 30.00000000000000000 ) ) ;
#151 = PERSON_AND_ORGANIZATION_ROLE ( 'classification_officer' ) ;
#152 = PERSON_AND_ORGANIZATION ( #155, #40 ) ;
#153 = DIRECTION ( 'NONE',  ( -3.491481338843133355E-15, 1.224646799147353207E-16, -1.000000000000000000 ) ) ;
#154 = DIRECTION ( 'NONE',  ( -3.491481338843133355E-15, 1.224646799147353207E-16, -1.000000000000000000 ) ) ;
#155 = PERSON ( 'UNSPECIFIED', 'UNSPECIFIED', 'UNSPECIFIED', ('UNSPECIFIED'), ('UNSPECIFIED'), ('UNSPECIFIED') ) ;
#156 = DIRECTION ( 'NONE',  ( -3.491481338843133355E-15, 1.224646799147353207E-16, -1.000000000000000000 ) ) ;
#157 = CLOSED_SHELL ( 'NONE', ( #222, #200, #124, #114, #205 ) ) ;
#158 = EDGE_LOOP ( 'NONE', ( #171 ) ) ;
#159 = EDGE_LOOP ( 'NONE', ( #12 ) ) ;
#160 = AXIS2_PLACEMENT_3D ( 'NONE', #206, #140, #178 ) ;
#161 = APPROVAL_STATUS ( 'not_yet_approved' ) ;
#162 = PLANE ( 'NONE',  #177 ) ;
#163 = DATE_AND_TIME ( #26, #85 ) ;
#164 = EDGE_CURVE ( 'NONE', #166, #166, #97, .T. ) ;
#165 = DIRECTION ( 'NONE',  ( 4.275831445896958607E-31, 1.000000000000000000, 1.224646799147353207E-16 ) ) ;
#166 = VERTEX_POINT ( 'NONE', #7 ) ;
#167 = PERSON_AND_ORGANIZATION ( #155, #40 ) ;
#168 = LOCAL_TIME ( 15, 46, 46.00000000000000000, #39 ) ;
#169 = APPROVAL_DATE_TIME ( #146, #211 ) ;
#170 = APPLICATION_CONTEXT ( 'configuration controlled 3d designs of mechanical parts and assemblies' ) ;
#171 = ORIENTED_EDGE ( 'NONE', *, *, #14, .F. ) ;
#172 = EDGE_CURVE ( 'NONE', #147, #147, #190, .T. ) ;
#173 = EDGE_LOOP ( 'NONE', ( #199 ) ) ;
#174 = DIRECTION ( 'NONE',  ( 0.0000000000000000000, 1.000000000000000000, 0.0000000000000000000 ) ) ;
#175 = DESIGN_CONTEXT ( 'detailed design', #170, 'design' ) ;
#176 = PLANE ( 'NONE',  #81 ) ;
#177 = AXIS2_PLACEMENT_3D ( 'NONE', #150, #148, #165 ) ;
#178 = DIRECTION ( 'NONE',  ( -4.012354050806745156E-31, -1.000000000000000000, -1.129377263005734854E-16 ) ) ;
#179 = CARTESIAN_POINT ( 'NONE',  ( 1.047444401652940007E-13, -3.673940397442059178E-15, 30.00000000000000000 ) ) ;
#180 = SECURITY_CLASSIFICATION_LEVEL ( 'unclassified' ) ;
#181 = AXIS2_PLACEMENT_3D ( 'NONE', #87, #156, #221 ) ;
#182 = PERSON_AND_ORGANIZATION ( #155, #40 ) ;
#183 = COORDINATED_UNIVERSAL_TIME_OFFSET ( 1, 0, .AHEAD. ) ;
#184 = FACE_OUTER_BOUND ( 'NONE', #158, .T. ) ;
#185 = APPROVAL_DATE_TIME ( #79, #69 ) ;
#186 = PERSON_AND_ORGANIZATION ( #155, #40 ) ;
#187 = ORIENTED_EDGE ( 'NONE', *, *, #57, .T. ) ;
#188 = EDGE_CURVE ( 'NONE', #215, #215, #8, .T. ) ;
#189 = DIRECTION ( 'NONE',  ( 4.275831445896957731E-31, 1.000000000000000000, 1.224646799147353207E-16 ) ) ;
#190 = CIRCLE ( 'NONE', #78, 0.1200000000000000094 ) ;
#191 = DIRECTION ( 'NONE',  ( 3.491481338843133355E-15, -1.224646799147353207E-16, 1.000000000000000000 ) ) ;
#192 = PRODUCT ( '36930', '36930', '', ( #109 ) ) ;
#193 = EDGE_LOOP ( 'NONE', ( #48 ) ) ;
#194 = CARTESIAN_POINT ( 'NONE',  ( 1.047444401652940007E-13, 0.3999999999999963585, 30.00000000000000000 ) ) ;
#195 = APPLICATION_PROTOCOL_DEFINITION ( 'international standard', 'config_control_design', 1994, #170 ) ;
#196 =( LENGTH_UNIT ( ) NAMED_UNIT ( * ) SI_UNIT ( .MILLI., .METRE. ) );
#197 = AXIS2_PLACEMENT_3D ( 'NONE', #202, #203, #219 ) ;
#198 = APPROVAL_ROLE ( '' ) ;
#199 = ORIENTED_EDGE ( 'NONE', *, *, #57, .F. ) ;
#200 = ADVANCED_FACE ( 'NONE', ( #204, #50 ), #83, .T. ) ;
#201 = CC_DESIGN_APPROVAL ( #211, ( #45 ) ) ;
#202 = CARTESIAN_POINT ( 'NONE',  ( 0.0000000000000000000, 0.0000000000000000000, 0.0000000000000000000 ) ) ;
#203 = DIRECTION ( 'NONE',  ( -3.491481338843133355E-15, 1.224646799147353207E-16, -1.000000000000000000 ) ) ;
#204 = FACE_BOUND ( 'NONE', #173, .T. ) ;
#205 = ADVANCED_FACE ( 'NONE', ( #184 ), #162, .F. ) ;
#206 = CARTESIAN_POINT ( 'NONE',  ( 2.517472366296576548E-16, -8.830104405909673087E-18, 0.07210327428330794153 ) ) ;
#207 = EDGE_LOOP ( 'NONE', ( #47 ) ) ;
#208 = AXIS2_PLACEMENT_3D ( 'NONE', #125, #94, #95 ) ;
#209 = DIRECTION ( 'NONE',  ( 0.0000000000000000000, 0.0000000000000000000, 1.000000000000000000 ) ) ;
#210 = APPROVAL_DATE_TIME ( #128, #54 ) ;
#211 = APPROVAL ( #11, 'UNSPECIFIED' ) ;
#212 = CARTESIAN_POINT ( 'NONE',  ( 1.043952920314096810E-13, 0.4999999999999963363, 29.89999999999999858 ) ) ;
#213 = CC_DESIGN_APPROVAL ( #54, ( #136 ) ) ;
#214 = AXIS2_PLACEMENT_3D ( 'NONE', #106, #31, #127 ) ;
#215 = VERTEX_POINT ( 'NONE', #212 ) ;
#216 = CALENDAR_DATE ( 2021, 7, 10 ) ;
#217 = CLOSED_SHELL ( 'NONE', ( #46, #82, #24 ) ) ;
#218 = CC_DESIGN_SECURITY_CLASSIFICATION ( #136, ( #105 ) ) ;
#219 = DIRECTION ( 'NONE',  ( 4.275831445896958607E-31, 1.000000000000000000, 1.224646799147353207E-16 ) ) ;
#220 = FACE_BOUND ( 'NONE', #29, .T. ) ;
#221 = DIRECTION ( 'NONE',  ( 0.0000000000000000000, 1.000000000000000000, 0.0000000000000000000 ) ) ;
#222 = ADVANCED_FACE ( 'NONE', ( #42 ), #112, .F. ) ;
#223 = DIRECTION ( 'NONE',  ( -3.491481338843133355E-15, 1.224646799147353207E-16, -1.000000000000000000 ) ) ;
ENDSEC;
END-ISO-10303-21;
