ISO-10303-21;
HEADER;
FILE_DESCRIPTION (( 'STEP AP203' ),
    '1' );
FILE_NAME ('36929.step',
    '2021-10-07T13:46:45',
    ( '' ),
    ( '' ),
    'SwSTEP 2.0',
    'SolidWorks 2019',
    '' );
FILE_SCHEMA (( 'CONFIG_CONTROL_DESIGN' ));
ENDSEC;

DATA;
#1 = CC_DESIGN_DATE_AND_TIME_ASSIGNMENT ( #110, #56, ( #64 ) ) ;
#2 = CARTESIAN_POINT ( 'NONE',  ( 1.047444401652940007E-13, 2.999519565323660135E-33, 30.00000000000000000 ) ) ;
#3 = PERSON_AND_ORGANIZATION_ROLE ( 'design_owner' ) ;
#4 = COORDINATED_UNIVERSAL_TIME_OFFSET ( 1, 0, .AHEAD. ) ;
#5 = ADVANCED_FACE ( 'NONE', ( #54 ), #74, .T. ) ;
#6 = EDGE_LOOP ( 'NONE', ( #216 ) ) ;
#7 = PERSON_AND_ORGANIZATION ( #90, #80 ) ;
#8 = ADVANCED_FACE ( 'NONE', ( #213 ), #167, .F. ) ;
#9 = DATE_AND_TIME ( #59, #169 ) ;
#10 = ORIENTED_EDGE ( 'NONE', *, *, #51, .F. ) ;
#11 = DIRECTION ( 'NONE',  ( 4.275831445896958607E-31, 1.000000000000000000, 1.224646799147353207E-16 ) ) ;
#12 = AXIS2_PLACEMENT_3D ( 'NONE', #221, #60, #11 ) ;
#13 = CYLINDRICAL_SURFACE ( 'NONE', #12, 0.4999999999999982792 ) ;
#14 = UNCERTAINTY_MEASURE_WITH_UNIT (LENGTH_MEASURE( 1.000000000000000082E-05 ), #20, 'distance_accuracy_value', 'NONE');
#15 = DIRECTION ( 'NONE',  ( 3.491481338843133355E-15, -1.224646799147353207E-16, 1.000000000000000000 ) ) ;
#16 = CC_DESIGN_PERSON_AND_ORGANIZATION_ASSIGNMENT ( #155, #67, ( #64 ) ) ;
#17 = LOCAL_TIME ( 15, 46, 45.00000000000000000, #125 ) ;
#18 = APPLICATION_PROTOCOL_DEFINITION ( 'international standard', 'config_control_design', 1994, #115 ) ;
#19 = CC_DESIGN_APPROVAL ( #133, ( #64 ) ) ;
#20 =( LENGTH_UNIT ( ) NAMED_UNIT ( * ) SI_UNIT ( .MILLI., .METRE. ) );
#21 = VERTEX_POINT ( 'NONE', #191 ) ;
#22 = CIRCLE ( 'NONE', #113, 0.1149999999999998940 ) ;
#23 = DIRECTION ( 'NONE',  ( 3.491481338843133355E-15, -1.224646799147353207E-16, 1.000000000000000000 ) ) ;
#24 = ORIENTED_EDGE ( 'NONE', *, *, #162, .F. ) ;
#25 = PERSON_AND_ORGANIZATION_ROLE ( 'classification_officer' ) ;
#26 = ORIENTED_EDGE ( 'NONE', *, *, #124, .T. ) ;
#27 = CC_DESIGN_DATE_AND_TIME_ASSIGNMENT ( #160, #219, ( #47 ) ) ;
#28 = FACE_BOUND ( 'NONE', #107, .T. ) ;
#29 = CIRCLE ( 'NONE', #39, 0.5000000000000000000 ) ;
#30 = DIRECTION ( 'NONE',  ( 0.0000000000000000000, 1.000000000000000000, 0.0000000000000000000 ) ) ;
#31 = DIRECTION ( 'NONE',  ( 3.491481338843133355E-15, -1.224646799147353207E-16, 1.000000000000000000 ) ) ;
#32 = LOCAL_TIME ( 15, 46, 45.00000000000000000, #4 ) ;
#33 = APPROVAL_STATUS ( 'not_yet_approved' ) ;
#34 = MANIFOLD_SOLID_BREP ( 'Corps-Déplacer/Copier1[2]', #205 ) ;
#35 = CYLINDRICAL_SURFACE ( 'NONE', #150, 0.1149999999999999217 ) ;
#36 = APPROVAL_ROLE ( '' ) ;
#37 = DIRECTION ( 'NONE',  ( -3.491481338843133355E-15, 1.224646799147353207E-16, -1.000000000000000000 ) ) ;
#38 = COORDINATED_UNIVERSAL_TIME_OFFSET ( 1, 0, .AHEAD. ) ;
#39 = AXIS2_PLACEMENT_3D ( 'NONE', #91, #152, #79 ) ;
#40 = EDGE_LOOP ( 'NONE', ( #24 ) ) ;
#41 = PERSON_AND_ORGANIZATION_ROLE ( 'creator' ) ;
#42 = EDGE_LOOP ( 'NONE', ( #10 ) ) ;
#43 = APPROVAL_PERSON_ORGANIZATION ( #7, #212, #126 ) ;
#44 = CARTESIAN_POINT ( 'NONE',  ( 3.491481338843133355E-15, 8.623618750305662087E-34, 1.000000000000000000 ) ) ;
#45 = FACE_BOUND ( 'NONE', #142, .T. ) ;
#46 = EDGE_CURVE ( 'NONE', #209, #209, #29, .T. ) ;
#47 = SECURITY_CLASSIFICATION ( '', '', #57 ) ;
#48 = CARTESIAN_POINT ( 'NONE',  ( 3.491481338843132566E-15, -1.224646799147352961E-16, 0.9999999999999997780 ) ) ;
#49 = PERSON_AND_ORGANIZATION ( #90, #80 ) ;
#50 = CARTESIAN_POINT ( 'NONE',  ( 8.508179852686078644E-15, 0.4999999999999963363, 2.436839560914043634 ) ) ;
#51 = EDGE_CURVE ( 'NONE', #69, #69, #128, .T. ) ;
#52 = CLOSED_SHELL ( 'NONE', ( #8, #82, #153, #158, #174 ) ) ;
#53 = PRODUCT_DEFINITION_SHAPE ( 'NONE', 'NONE',  #64 ) ;
#54 = FACE_OUTER_BOUND ( 'NONE', #109, .T. ) ;
#55 = ORIENTED_EDGE ( 'NONE', *, *, #162, .T. ) ;
#56 = DATE_TIME_ROLE ( 'creation_date' ) ;
#57 = SECURITY_CLASSIFICATION_LEVEL ( 'unclassified' ) ;
#58 = EDGE_LOOP ( 'NONE', ( #200 ) ) ;
#59 = CALENDAR_DATE ( 2021, 7, 10 ) ;
#60 = DIRECTION ( 'NONE',  ( -3.491481338843133355E-15, 1.224646799147353207E-16, -1.000000000000000000 ) ) ;
#61 = DIRECTION ( 'NONE',  ( 0.0000000000000000000, 1.000000000000000000, 0.0000000000000000000 ) ) ;
#62 = DIRECTION ( 'NONE',  ( 0.0000000000000000000, -1.000000000000000000, 0.0000000000000000000 ) ) ;
#63 = AXIS2_PLACEMENT_3D ( 'NONE', #76, #151, #61 ) ;
#64 = PRODUCT_DEFINITION ( 'UNKNOWN', '', #188, #132 ) ;
#65 =( NAMED_UNIT ( * ) SI_UNIT ( $, .STERADIAN. ) SOLID_ANGLE_UNIT ( ) );
#66 = AXIS2_PLACEMENT_3D ( 'NONE', #149, #129, #111 ) ;
#67 = PERSON_AND_ORGANIZATION_ROLE ( 'creator' ) ;
#68 = EDGE_CURVE ( 'NONE', #206, #206, #192, .T. ) ;
#69 = VERTEX_POINT ( 'NONE', #50 ) ;
#70 = APPLICATION_PROTOCOL_DEFINITION ( 'international standard', 'config_control_design', 1994, #220 ) ;
#71 = AXIS2_PLACEMENT_3D ( 'NONE', #187, #31, #164 ) ;
#72 = DIRECTION ( 'NONE',  ( 4.275831445896958607E-31, 1.000000000000000000, 1.224646799147353207E-16 ) ) ;
#73 = ORIENTED_EDGE ( 'NONE', *, *, #51, .T. ) ;
#74 = CONICAL_SURFACE ( 'NONE', #173, 0.1149999999999998940, 1.029744258676649871 ) ;
#75 = COORDINATED_UNIVERSAL_TIME_OFFSET ( 1, 0, .AHEAD. ) ;
#76 = CARTESIAN_POINT ( 'NONE',  ( 8.508179852686078644E-15, -2.984267768309025159E-16, 2.436839560914043634 ) ) ;
#77 = APPROVAL_PERSON_ORGANIZATION ( #161, #181, #106 ) ;
#78 = PRODUCT ( '36929', '36929', '', ( #172 ) ) ;
#79 = DIRECTION ( 'NONE',  ( 0.0000000000000000000, 1.000000000000000000, 0.0000000000000000000 ) ) ;
#80 = ORGANIZATION ( 'UNSPECIFIED', 'UNSPECIFIED', '' ) ;
#81 = APPROVAL_DATE_TIME ( #177, #133 ) ;
#82 = ADVANCED_FACE ( 'NONE', ( #28, #223 ), #207, .T. ) ;
#83 = FACE_OUTER_BOUND ( 'NONE', #102, .T. ) ;
#84 = CARTESIAN_POINT ( 'NONE',  ( 2.412577684367553223E-16, 0.1149999999999998801, 0.06909897118817012740 ) ) ;
#85 = APPROVAL_DATE_TIME ( #146, #181 ) ;
#86 = CALENDAR_DATE ( 2021, 7, 10 ) ;
#87 = APPROVAL_STATUS ( 'not_yet_approved' ) ;
#88 = ORIENTED_EDGE ( 'NONE', *, *, #190, .F. ) ;
#89 = ORIENTED_EDGE ( 'NONE', *, *, #68, .T. ) ;
#90 = PERSON ( 'UNSPECIFIED', 'UNSPECIFIED', 'UNSPECIFIED', ('UNSPECIFIED'), ('UNSPECIFIED'), ('UNSPECIFIED') ) ;
#91 = CARTESIAN_POINT ( 'NONE',  ( 1.043952920314096810E-13, -3.661693929450586610E-15, 29.89999999999999858 ) ) ;
#92 = DIRECTION ( 'NONE',  ( -3.491481338843133355E-15, 1.224646799147353207E-16, -1.000000000000000000 ) ) ;
#93 = AXIS2_PLACEMENT_3D ( 'NONE', #2, #99, #176 ) ;
#94 = CARTESIAN_POINT ( 'NONE',  ( 1.047444401652940007E-13, -3.673940397442059178E-15, 30.00000000000000000 ) ) ;
#95 = DIRECTION ( 'NONE',  ( -3.491481338843133355E-15, 1.224646799147353207E-16, -1.000000000000000000 ) ) ;
#96 = CARTESIAN_POINT ( 'NONE',  ( 0.0000000000000000000, 0.0000000000000000000, 0.0000000000000000000 ) ) ;
#97 = CALENDAR_DATE ( 2021, 7, 10 ) ;
#98 = PLANE ( 'NONE',  #93 ) ;
#99 = DIRECTION ( 'NONE',  ( -3.491481338843133355E-15, 1.224646799147353207E-16, -1.000000000000000000 ) ) ;
#100 = CC_DESIGN_PERSON_AND_ORGANIZATION_ASSIGNMENT ( #184, #25, ( #47 ) ) ;
#101 = CC_DESIGN_SECURITY_CLASSIFICATION ( #47, ( #188 ) ) ;
#102 = EDGE_LOOP ( 'NONE', ( #89 ) ) ;
#103 = PERSON_AND_ORGANIZATION ( #90, #80 ) ;
#104 = MANIFOLD_SOLID_BREP ( 'Corps-Déplacer/Copier1[1]', #52 ) ;
#105 = APPROVAL_DATE_TIME ( #9, #212 ) ;
#106 = APPROVAL_ROLE ( '' ) ;
#107 = EDGE_LOOP ( 'NONE', ( #88 ) ) ;
#108 = LOCAL_TIME ( 15, 46, 45.00000000000000000, #208 ) ;
#109 = EDGE_LOOP ( 'NONE', ( #55 ) ) ;
#110 = DATE_AND_TIME ( #97, #108 ) ;
#111 = DIRECTION ( 'NONE',  ( 0.0000000000000000000, 1.000000000000000000, 0.0000000000000000000 ) ) ;
#112 = CARTESIAN_POINT ( 'NONE',  ( 2.412577684367552730E-16, -8.462183388996769592E-18, 0.06909897118817011352 ) ) ;
#113 = AXIS2_PLACEMENT_3D ( 'NONE', #112, #201, #185 ) ;
#114 = CARTESIAN_POINT ( 'NONE',  ( 8.508179852686078644E-15, -2.984267768309025159E-16, 2.436839560914043634 ) ) ;
#115 = APPLICATION_CONTEXT ( 'configuration controlled 3d designs of mechanical parts and assemblies' ) ;
#116 = CIRCLE ( 'NONE', #156, 0.4000000000000000222 ) ;
#117 = CONICAL_SURFACE ( 'NONE', #66, 0.4000000000000000222, 0.7853981633974512766 ) ;
#118 = DIRECTION ( 'NONE',  ( 0.0000000000000000000, 0.0000000000000000000, 1.000000000000000000 ) ) ;
#119 = ADVANCED_FACE ( 'NONE', ( #131 ), #203, .T. ) ;
#120 = DIRECTION ( 'NONE',  ( 0.0000000000000000000, 1.000000000000000000, 0.0000000000000000000 ) ) ;
#121 = ADVANCED_BREP_SHAPE_REPRESENTATION ( '36929', ( #104, #34, #195 ), #215 ) ;
#122 = APPROVAL_PERSON_ORGANIZATION ( #138, #133, #36 ) ;
#123 = EDGE_LOOP ( 'NONE', ( #73 ) ) ;
#124 = EDGE_CURVE ( 'NONE', #21, #21, #116, .T. ) ;
#125 = COORDINATED_UNIVERSAL_TIME_OFFSET ( 1, 0, .AHEAD. ) ;
#126 = APPROVAL_ROLE ( '' ) ;
#127 = ORIENTED_EDGE ( 'NONE', *, *, #68, .F. ) ;
#128 = CIRCLE ( 'NONE', #63, 0.4999999999999966693 ) ;
#129 = DIRECTION ( 'NONE',  ( -3.491481338843133355E-15, 1.224646799147353207E-16, -1.000000000000000000 ) ) ;
#130 = DIRECTION ( 'NONE',  ( 3.491481338843133355E-15, -1.224646799147353207E-16, 1.000000000000000000 ) ) ;
#131 = FACE_OUTER_BOUND ( 'NONE', #194, .T. ) ;
#132 = DESIGN_CONTEXT ( 'detailed design', #220, 'design' ) ;
#133 = APPROVAL ( #33, 'UNSPECIFIED' ) ;
#134 = FACE_OUTER_BOUND ( 'NONE', #58, .T. ) ;
#135 = AXIS2_PLACEMENT_3D ( 'NONE', #44, #15, #222 ) ;
#136 = CARTESIAN_POINT ( 'NONE',  ( 0.0000000000000000000, 0.0000000000000000000, 0.0000000000000000000 ) ) ;
#137 = CARTESIAN_POINT ( 'NONE',  ( 3.491481338843132566E-15, 0.1149999999999998385, 0.9999999999999997780 ) ) ;
#138 = PERSON_AND_ORGANIZATION ( #90, #80 ) ;
#139 = CC_DESIGN_PERSON_AND_ORGANIZATION_ASSIGNMENT ( #49, #3, ( #78 ) ) ;
#140 = CC_DESIGN_APPROVAL ( #181, ( #188 ) ) ;
#141 = VERTEX_POINT ( 'NONE', #84 ) ;
#142 = EDGE_LOOP ( 'NONE', ( #26 ) ) ;
#143 = PERSON_AND_ORGANIZATION ( #90, #80 ) ;
#144 = DIRECTION ( 'NONE',  ( -4.186804226928777325E-31, -1.000000000000000000, -1.178480622266853696E-16 ) ) ;
#145 = AXIS2_PLACEMENT_3D ( 'NONE', #211, #159, #120 ) ;
#146 = DATE_AND_TIME ( #196, #17 ) ;
#147 = ORIENTED_EDGE ( 'NONE', *, *, #46, .T. ) ;
#148 = CC_DESIGN_PERSON_AND_ORGANIZATION_ASSIGNMENT ( #103, #41, ( #188 ) ) ;
#149 = CARTESIAN_POINT ( 'NONE',  ( 1.047444401652940007E-13, -3.673940397442059178E-15, 30.00000000000000000 ) ) ;
#150 = AXIS2_PLACEMENT_3D ( 'NONE', #136, #37, #72 ) ;
#151 = DIRECTION ( 'NONE',  ( -3.491481338843133355E-15, 1.224646799147353207E-16, -1.000000000000000000 ) ) ;
#152 = DIRECTION ( 'NONE',  ( -3.491481338843133355E-15, 1.224646799147353207E-16, -1.000000000000000000 ) ) ;
#153 = ADVANCED_FACE ( 'NONE', ( #163, #186 ), #13, .T. ) ;
#154 = CARTESIAN_POINT ( 'NONE',  ( 1.043952920314096810E-13, 0.4999999999999963363, 29.89999999999999858 ) ) ;
#155 = PERSON_AND_ORGANIZATION ( #90, #80 ) ;
#156 = AXIS2_PLACEMENT_3D ( 'NONE', #94, #95, #168 ) ;
#157 =( NAMED_UNIT ( * ) PLANE_ANGLE_UNIT ( ) SI_UNIT ( $, .RADIAN. ) );
#158 = ADVANCED_FACE ( 'NONE', ( #202, #45 ), #117, .T. ) ;
#159 = DIRECTION ( 'NONE',  ( -3.491481338843133355E-15, 1.224646799147353207E-16, -1.000000000000000000 ) ) ;
#160 = DATE_AND_TIME ( #86, #204 ) ;
#161 = PERSON_AND_ORGANIZATION ( #90, #80 ) ;
#162 = EDGE_CURVE ( 'NONE', #141, #141, #22, .T. ) ;
#163 = FACE_OUTER_BOUND ( 'NONE', #42, .T. ) ;
#164 = DIRECTION ( 'NONE',  ( -4.275831445896958607E-31, -1.000000000000000000, -1.224646799147353207E-16 ) ) ;
#165 = AXIS2_PLACEMENT_3D ( 'NONE', #114, #130, #62 ) ;
#166 = ADVANCED_FACE ( 'NONE', ( #210, #83 ), #35, .T. ) ;
#167 = PLANE ( 'NONE',  #135 ) ;
#168 = DIRECTION ( 'NONE',  ( 0.0000000000000000000, 1.000000000000000000, 0.0000000000000000000 ) ) ;
#169 = LOCAL_TIME ( 15, 46, 45.00000000000000000, #38 ) ;
#170 = PRODUCT_RELATED_PRODUCT_CATEGORY ( 'detail', '', ( #78 ) ) ;
#171 = DIRECTION ( 'NONE',  ( 1.000000000000000000, 0.0000000000000000000, 0.0000000000000000000 ) ) ;
#172 = MECHANICAL_CONTEXT ( 'NONE', #115, 'mechanical' ) ;
#173 = AXIS2_PLACEMENT_3D ( 'NONE', #179, #23, #144 ) ;
#174 = ADVANCED_FACE ( 'NONE', ( #134 ), #98, .F. ) ;
#175 = CARTESIAN_POINT ( 'NONE',  ( 3.491481338843132566E-15, 0.1149999999999998385, 0.9999999999999997780 ) ) ;
#176 = DIRECTION ( 'NONE',  ( 4.275831445896958607E-31, 1.000000000000000000, 1.224646799147353207E-16 ) ) ;
#177 = DATE_AND_TIME ( #189, #32 ) ;
#178 = AXIS2_PLACEMENT_3D ( 'NONE', #48, #92, #30 ) ;
#179 = CARTESIAN_POINT ( 'NONE',  ( 2.412577684367552730E-16, -8.462183388996769592E-18, 0.06909897118817011352 ) ) ;
#180 = SHAPE_DEFINITION_REPRESENTATION ( #53, #121 ) ;
#181 = APPROVAL ( #214, 'UNSPECIFIED' ) ;
#182 = CIRCLE ( 'NONE', #145, 0.1149999999999999634 ) ;
#183 = ORIENTED_EDGE ( 'NONE', *, *, #190, .T. ) ;
#184 = PERSON_AND_ORGANIZATION ( #90, #80 ) ;
#185 = DIRECTION ( 'NONE',  ( 4.186804226928777325E-31, 1.000000000000000000, 1.178480622266853696E-16 ) ) ;
#186 = FACE_OUTER_BOUND ( 'NONE', #198, .T. ) ;
#187 = CARTESIAN_POINT ( 'NONE',  ( 3.491481338843133355E-15, 8.623618750305662087E-34, 1.000000000000000000 ) ) ;
#188 = PRODUCT_DEFINITION_FORMATION_WITH_SPECIFIED_SOURCE ( 'ANY', '', #78, .NOT_KNOWN. ) ;
#189 = CALENDAR_DATE ( 2021, 7, 10 ) ;
#190 = EDGE_CURVE ( 'NONE', #193, #193, #182, .T. ) ;
#191 = CARTESIAN_POINT ( 'NONE',  ( 1.047444401652940007E-13, 0.3999999999999963585, 30.00000000000000000 ) ) ;
#192 = CIRCLE ( 'NONE', #178, 0.1149999999999999634 ) ;
#193 = VERTEX_POINT ( 'NONE', #137 ) ;
#194 = EDGE_LOOP ( 'NONE', ( #127 ) ) ;
#195 = AXIS2_PLACEMENT_3D ( 'NONE', #96, #118, #171 ) ;
#196 = CALENDAR_DATE ( 2021, 7, 10 ) ;
#197 = CC_DESIGN_PERSON_AND_ORGANIZATION_ASSIGNMENT ( #143, #217, ( #188 ) ) ;
#198 = EDGE_LOOP ( 'NONE', ( #147 ) ) ;
#199 = CC_DESIGN_APPROVAL ( #212, ( #47 ) ) ;
#200 = ORIENTED_EDGE ( 'NONE', *, *, #124, .F. ) ;
#201 = DIRECTION ( 'NONE',  ( -3.491481338843133355E-15, 1.224646799147353207E-16, -1.000000000000000000 ) ) ;
#202 = FACE_OUTER_BOUND ( 'NONE', #6, .T. ) ;
#203 = PLANE ( 'NONE',  #71 ) ;
#204 = LOCAL_TIME ( 15, 46, 45.00000000000000000, #75 ) ;
#205 = CLOSED_SHELL ( 'NONE', ( #5, #166, #119 ) ) ;
#206 = VERTEX_POINT ( 'NONE', #175 ) ;
#207 = CONICAL_SURFACE ( 'NONE', #165, 0.4999999999999966693, 0.2617993877991427465 ) ;
#208 = COORDINATED_UNIVERSAL_TIME_OFFSET ( 1, 0, .AHEAD. ) ;
#209 = VERTEX_POINT ( 'NONE', #154 ) ;
#210 = FACE_OUTER_BOUND ( 'NONE', #40, .T. ) ;
#211 = CARTESIAN_POINT ( 'NONE',  ( 3.491481338843132566E-15, -1.224646799147352961E-16, 0.9999999999999997780 ) ) ;
#212 = APPROVAL ( #87, 'UNSPECIFIED' ) ;
#213 = FACE_OUTER_BOUND ( 'NONE', #218, .T. ) ;
#214 = APPROVAL_STATUS ( 'not_yet_approved' ) ;
#215 =( GEOMETRIC_REPRESENTATION_CONTEXT ( 3 ) GLOBAL_UNCERTAINTY_ASSIGNED_CONTEXT ( ( #14 ) ) GLOBAL_UNIT_ASSIGNED_CONTEXT ( ( #20, #157, #65 ) ) REPRESENTATION_CONTEXT ( 'NONE', 'WORKASPACE' ) );
#216 = ORIENTED_EDGE ( 'NONE', *, *, #46, .F. ) ;
#217 = PERSON_AND_ORGANIZATION_ROLE ( 'design_supplier' ) ;
#218 = EDGE_LOOP ( 'NONE', ( #183 ) ) ;
#219 = DATE_TIME_ROLE ( 'classification_date' ) ;
#220 = APPLICATION_CONTEXT ( 'configuration controlled 3d designs of mechanical parts and assemblies' ) ;
#221 = CARTESIAN_POINT ( 'NONE',  ( 0.0000000000000000000, 0.0000000000000000000, 0.0000000000000000000 ) ) ;
#222 = DIRECTION ( 'NONE',  ( -4.275831445896958607E-31, -1.000000000000000000, -1.224646799147353207E-16 ) ) ;
#223 = FACE_OUTER_BOUND ( 'NONE', #123, .T. ) ;
ENDSEC;
END-ISO-10303-21;
