ISO-10303-21;
HEADER;
FILE_DESCRIPTION (( 'STEP AP203' ),
    '1' );
FILE_NAME ('36928.step',
    '2021-10-07T13:46:44',
    ( '' ),
    ( '' ),
    'SwSTEP 2.0',
    'SolidWorks 2019',
    '' );
FILE_SCHEMA (( 'CONFIG_CONTROL_DESIGN' ));
ENDSEC;

DATA;
#1 = EDGE_LOOP ( 'NONE', ( #189 ) ) ;
#2 = PERSON_AND_ORGANIZATION_ROLE ( 'design_supplier' ) ;
#3 = AXIS2_PLACEMENT_3D ( 'NONE', #11, #68, #134 ) ;
#4 = SECURITY_CLASSIFICATION_LEVEL ( 'unclassified' ) ;
#5 = ORIENTED_EDGE ( 'NONE', *, *, #176, .F. ) ;
#6 = APPLICATION_CONTEXT ( 'configuration controlled 3d designs of mechanical parts and assemblies' ) ;
#7 = VERTEX_POINT ( 'NONE', #149 ) ;
#8 = FACE_OUTER_BOUND ( 'NONE', #208, .T. ) ;
#9 = DIRECTION ( 'NONE',  ( 3.491481338843133355E-15, -1.224646799147353207E-16, 1.000000000000000000 ) ) ;
#10 = DIRECTION ( 'NONE',  ( -3.491481338843133355E-15, 1.224646799147353207E-16, -1.000000000000000000 ) ) ;
#11 = CARTESIAN_POINT ( 'NONE',  ( 2.307683002438528913E-16, -8.094262372083867638E-18, 0.06609466809303228552 ) ) ;
#12 = SECURITY_CLASSIFICATION ( '', '', #4 ) ;
#13 = COORDINATED_UNIVERSAL_TIME_OFFSET ( 1, 0, .AHEAD. ) ;
#14 = ADVANCED_FACE ( 'NONE', ( #211, #65 ), #131, .T. ) ;
#15 = DATE_AND_TIME ( #106, #42 ) ;
#16 = PRODUCT_DEFINITION_SHAPE ( 'NONE', 'NONE',  #75 ) ;
#17 = EDGE_CURVE ( 'NONE', #217, #217, #41, .T. ) ;
#18 = DESIGN_CONTEXT ( 'detailed design', #45, 'design' ) ;
#19 = CALENDAR_DATE ( 2021, 7, 10 ) ;
#20 = APPROVAL_DATE_TIME ( #83, #24 ) ;
#21 = EDGE_LOOP ( 'NONE', ( #5 ) ) ;
#22 = DATE_TIME_ROLE ( 'creation_date' ) ;
#23 = ORIENTED_EDGE ( 'NONE', *, *, #155, .T. ) ;
#24 = APPROVAL ( #173, 'UNSPECIFIED' ) ;
#25 = AXIS2_PLACEMENT_3D ( 'NONE', #162, #195, #47 ) ;
#26 = DIRECTION ( 'NONE',  ( -3.491481338843133355E-15, 1.224646799147353207E-16, -1.000000000000000000 ) ) ;
#27 = DIRECTION ( 'NONE',  ( -3.491481338843133355E-15, 1.224646799147353207E-16, -1.000000000000000000 ) ) ;
#28 = ADVANCED_FACE ( 'NONE', ( #150 ), #32, .F. ) ;
#29 = CARTESIAN_POINT ( 'NONE',  ( 0.0000000000000000000, 0.0000000000000000000, 0.0000000000000000000 ) ) ;
#30 = CLOSED_SHELL ( 'NONE', ( #28, #50, #14, #157, #105 ) ) ;
#31 = FACE_OUTER_BOUND ( 'NONE', #110, .T. ) ;
#32 = PLANE ( 'NONE',  #97 ) ;
#33 = CC_DESIGN_PERSON_AND_ORGANIZATION_ASSIGNMENT ( #56, #187, ( #75 ) ) ;
#34 =( GEOMETRIC_REPRESENTATION_CONTEXT ( 3 ) GLOBAL_UNCERTAINTY_ASSIGNED_CONTEXT ( ( #80 ) ) GLOBAL_UNIT_ASSIGNED_CONTEXT ( ( #223, #188, #220 ) ) REPRESENTATION_CONTEXT ( 'NONE', 'WORKASPACE' ) );
#35 = COORDINATED_UNIVERSAL_TIME_OFFSET ( 1, 0, .AHEAD. ) ;
#36 = AXIS2_PLACEMENT_3D ( 'NONE', #215, #27, #216 ) ;
#37 = EDGE_LOOP ( 'NONE', ( #77 ) ) ;
#38 = COORDINATED_UNIVERSAL_TIME_OFFSET ( 1, 0, .AHEAD. ) ;
#39 = EDGE_LOOP ( 'NONE', ( #210 ) ) ;
#40 = APPROVAL_ROLE ( '' ) ;
#41 = CIRCLE ( 'NONE', #36, 0.5000000000000000000 ) ;
#42 = LOCAL_TIME ( 15, 46, 44.00000000000000000, #35 ) ;
#43 = MANIFOLD_SOLID_BREP ( 'Corps-Déplacer/Copier1[1]', #30 ) ;
#44 = PRODUCT_RELATED_PRODUCT_CATEGORY ( 'detail', '', ( #63 ) ) ;
#45 = APPLICATION_CONTEXT ( 'configuration controlled 3d designs of mechanical parts and assemblies' ) ;
#46 = PERSON_AND_ORGANIZATION_ROLE ( 'creator' ) ;
#47 = DIRECTION ( 'NONE',  ( 0.0000000000000000000, 1.000000000000000000, 0.0000000000000000000 ) ) ;
#48 = PRODUCT_DEFINITION_FORMATION_WITH_SPECIFIED_SOURCE ( 'ANY', '', #63, .NOT_KNOWN. ) ;
#49 = DIRECTION ( 'NONE',  ( -4.275831445896958607E-31, -1.000000000000000000, -1.224646799147353207E-16 ) ) ;
#50 = ADVANCED_FACE ( 'NONE', ( #139, #8 ), #71, .T. ) ;
#51 = FACE_OUTER_BOUND ( 'NONE', #61, .T. ) ;
#52 = CARTESIAN_POINT ( 'NONE',  ( 3.491481338843133355E-15, 8.248678804640196658E-34, 1.000000000000000000 ) ) ;
#53 = AXIS2_PLACEMENT_3D ( 'NONE', #102, #169, #89 ) ;
#54 = CARTESIAN_POINT ( 'NONE',  ( 3.491481338843133355E-15, 8.248678804640196658E-34, 1.000000000000000000 ) ) ;
#55 = APPLICATION_PROTOCOL_DEFINITION ( 'international standard', 'config_control_design', 1994, #45 ) ;
#56 = PERSON_AND_ORGANIZATION ( #137, #112 ) ;
#57 = APPROVAL_PERSON_ORGANIZATION ( #185, #218, #92 ) ;
#58 = CIRCLE ( 'NONE', #25, 0.4000000000000000222 ) ;
#59 = AXIS2_PLACEMENT_3D ( 'NONE', #29, #85, #152 ) ;
#60 = ORIENTED_EDGE ( 'NONE', *, *, #107, .F. ) ;
#61 = EDGE_LOOP ( 'NONE', ( #191 ) ) ;
#62 = CALENDAR_DATE ( 2021, 7, 10 ) ;
#63 = PRODUCT ( '36928', '36928', '', ( #154 ) ) ;
#64 = CIRCLE ( 'NONE', #212, 0.1099999999999998895 ) ;
#65 = FACE_OUTER_BOUND ( 'NONE', #178, .T. ) ;
#66 = CC_DESIGN_SECURITY_CLASSIFICATION ( #12, ( #48 ) ) ;
#67 = DATE_AND_TIME ( #109, #204 ) ;
#68 = DIRECTION ( 'NONE',  ( 3.491481338843133355E-15, -1.224646799147353207E-16, 1.000000000000000000 ) ) ;
#69 = ADVANCED_FACE ( 'NONE', ( #167 ), #104, .T. ) ;
#70 = DIRECTION ( 'NONE',  ( -4.275831445896958607E-31, -1.000000000000000000, -1.224646799147353207E-16 ) ) ;
#71 = CONICAL_SURFACE ( 'NONE', #115, 0.4999999999999966693, 0.2617993877991427465 ) ;
#72 = CARTESIAN_POINT ( 'NONE',  ( 1.047444401652940007E-13, 2.999519565323660135E-33, 30.00000000000000000 ) ) ;
#73 = CARTESIAN_POINT ( 'NONE',  ( 1.043952920314096810E-13, 0.4999999999999963363, 29.89999999999999858 ) ) ;
#74 = DIRECTION ( 'NONE',  ( -3.491481338843133355E-15, 1.224646799147353207E-16, -1.000000000000000000 ) ) ;
#75 = PRODUCT_DEFINITION ( 'UNKNOWN', '', #48, #18 ) ;
#76 = CARTESIAN_POINT ( 'NONE',  ( 1.047444401652940007E-13, 0.3999999999999963585, 30.00000000000000000 ) ) ;
#77 = ORIENTED_EDGE ( 'NONE', *, *, #155, .F. ) ;
#78 = DATE_TIME_ROLE ( 'classification_date' ) ;
#79 = CIRCLE ( 'NONE', #146, 0.1099999999999999728 ) ;
#80 = UNCERTAINTY_MEASURE_WITH_UNIT (LENGTH_MEASURE( 1.000000000000000082E-05 ), #223, 'distance_accuracy_value', 'NONE');
#81 = PERSON_AND_ORGANIZATION ( #137, #112 ) ;
#82 = ORIENTED_EDGE ( 'NONE', *, *, #17, .T. ) ;
#83 = DATE_AND_TIME ( #19, #179 ) ;
#84 = FACE_OUTER_BOUND ( 'NONE', #129, .T. ) ;
#85 = DIRECTION ( 'NONE',  ( -3.491481338843133355E-15, 1.224646799147353207E-16, -1.000000000000000000 ) ) ;
#86 = DIRECTION ( 'NONE',  ( 3.491481338843133355E-15, -1.224646799147353207E-16, 1.000000000000000000 ) ) ;
#87 = PLANE ( 'NONE',  #123 ) ;
#88 = CARTESIAN_POINT ( 'NONE',  ( 2.307683002438529406E-16, 0.1099999999999998757, 0.06609466809303229939 ) ) ;
#89 = DIRECTION ( 'NONE',  ( 1.000000000000000000, 0.0000000000000000000, 0.0000000000000000000 ) ) ;
#90 = AXIS2_PLACEMENT_3D ( 'NONE', #99, #74, #198 ) ;
#91 = CC_DESIGN_APPROVAL ( #24, ( #48 ) ) ;
#92 = APPROVAL_ROLE ( '' ) ;
#93 = CC_DESIGN_PERSON_AND_ORGANIZATION_ASSIGNMENT ( #96, #2, ( #48 ) ) ;
#94 = APPROVAL_ROLE ( '' ) ;
#95 = AXIS2_PLACEMENT_3D ( 'NONE', #117, #26, #122 ) ;
#96 = PERSON_AND_ORGANIZATION ( #137, #112 ) ;
#97 = AXIS2_PLACEMENT_3D ( 'NONE', #54, #86, #70 ) ;
#98 = CYLINDRICAL_SURFACE ( 'NONE', #59, 0.1099999999999999312 ) ;
#99 = CARTESIAN_POINT ( 'NONE',  ( 8.573331781437285336E-15, -3.007119988687748367E-16, 2.455499814951888293 ) ) ;
#100 = DIRECTION ( 'NONE',  ( 0.0000000000000000000, -1.000000000000000000, 0.0000000000000000000 ) ) ;
#101 = CARTESIAN_POINT ( 'NONE',  ( 8.573331781437285336E-15, 0.4999999999999963363, 2.455499814951888293 ) ) ;
#102 = CARTESIAN_POINT ( 'NONE',  ( 0.0000000000000000000, 0.0000000000000000000, 0.0000000000000000000 ) ) ;
#103 = APPROVAL_STATUS ( 'not_yet_approved' ) ;
#104 = CONICAL_SURFACE ( 'NONE', #3, 0.1099999999999998895, 1.029744258676649871 ) ;
#105 = ADVANCED_FACE ( 'NONE', ( #194 ), #124, .F. ) ;
#106 = CALENDAR_DATE ( 2021, 7, 10 ) ;
#107 = EDGE_CURVE ( 'NONE', #183, #183, #186, .T. ) ;
#108 = EDGE_LOOP ( 'NONE', ( #60 ) ) ;
#109 = CALENDAR_DATE ( 2021, 7, 10 ) ;
#110 = EDGE_LOOP ( 'NONE', ( #145 ) ) ;
#111 = SHAPE_DEFINITION_REPRESENTATION ( #16, #222 ) ;
#112 = ORGANIZATION ( 'UNSPECIFIED', 'UNSPECIFIED', '' ) ;
#113 = CARTESIAN_POINT ( 'NONE',  ( 0.0000000000000000000, 0.0000000000000000000, 0.0000000000000000000 ) ) ;
#114 = PERSON_AND_ORGANIZATION_ROLE ( 'classification_officer' ) ;
#115 = AXIS2_PLACEMENT_3D ( 'NONE', #119, #151, #100 ) ;
#116 = APPROVAL_PERSON_ORGANIZATION ( #81, #24, #40 ) ;
#117 = CARTESIAN_POINT ( 'NONE',  ( 3.491481338843132566E-15, -1.224646799147352961E-16, 0.9999999999999997780 ) ) ;
#118 = EDGE_CURVE ( 'NONE', #168, #168, #64, .T. ) ;
#119 = CARTESIAN_POINT ( 'NONE',  ( 8.573331781437285336E-15, -3.007119988687748367E-16, 2.455499814951888293 ) ) ;
#120 = MANIFOLD_SOLID_BREP ( 'Corps-Déplacer/Copier1[2]', #161 ) ;
#121 = DIRECTION ( 'NONE',  ( -3.491481338843133355E-15, 1.224646799147353207E-16, -1.000000000000000000 ) ) ;
#122 = DIRECTION ( 'NONE',  ( 0.0000000000000000000, 1.000000000000000000, 0.0000000000000000000 ) ) ;
#123 = AXIS2_PLACEMENT_3D ( 'NONE', #52, #9, #49 ) ;
#124 = PLANE ( 'NONE',  #165 ) ;
#125 = APPLICATION_PROTOCOL_DEFINITION ( 'international standard', 'config_control_design', 1994, #6 ) ;
#126 = ADVANCED_FACE ( 'NONE', ( #31 ), #87, .T. ) ;
#127 = APPROVAL ( #214, 'UNSPECIFIED' ) ;
#128 = CIRCLE ( 'NONE', #95, 0.1099999999999999728 ) ;
#129 = EDGE_LOOP ( 'NONE', ( #190 ) ) ;
#130 = ORIENTED_EDGE ( 'NONE', *, *, #107, .T. ) ;
#131 = CYLINDRICAL_SURFACE ( 'NONE', #141, 0.4999999999999982792 ) ;
#132 = PERSON_AND_ORGANIZATION ( #137, #112 ) ;
#133 = CC_DESIGN_DATE_AND_TIME_ASSIGNMENT ( #15, #22, ( #75 ) ) ;
#134 = DIRECTION ( 'NONE',  ( -4.377113509970994556E-31, -1.000000000000000000, -1.232047923278983432E-16 ) ) ;
#135 = CONICAL_SURFACE ( 'NONE', #158, 0.4000000000000000222, 0.7853981633974512766 ) ;
#136 = DIRECTION ( 'NONE',  ( -3.491481338843133355E-15, 1.224646799147353207E-16, -1.000000000000000000 ) ) ;
#137 = PERSON ( 'UNSPECIFIED', 'UNSPECIFIED', 'UNSPECIFIED', ('UNSPECIFIED'), ('UNSPECIFIED'), ('UNSPECIFIED') ) ;
#138 = CARTESIAN_POINT ( 'NONE',  ( 2.307683002438528913E-16, -8.094262372083867638E-18, 0.06609466809303228552 ) ) ;
#139 = FACE_BOUND ( 'NONE', #37, .T. ) ;
#140 = VERTEX_POINT ( 'NONE', #153 ) ;
#141 = AXIS2_PLACEMENT_3D ( 'NONE', #113, #213, #177 ) ;
#142 = PERSON_AND_ORGANIZATION ( #137, #112 ) ;
#143 = EDGE_CURVE ( 'NONE', #140, #140, #79, .T. ) ;
#144 = LOCAL_TIME ( 15, 46, 44.00000000000000000, #160 ) ;
#145 = ORIENTED_EDGE ( 'NONE', *, *, #143, .F. ) ;
#146 = AXIS2_PLACEMENT_3D ( 'NONE', #164, #197, #184 ) ;
#147 = ORIENTED_EDGE ( 'NONE', *, *, #176, .T. ) ;
#148 = PERSON_AND_ORGANIZATION ( #137, #112 ) ;
#149 = CARTESIAN_POINT ( 'NONE',  ( 3.491481338843132566E-15, 0.1099999999999998479, 0.9999999999999997780 ) ) ;
#150 = FACE_OUTER_BOUND ( 'NONE', #175, .T. ) ;
#151 = DIRECTION ( 'NONE',  ( 3.491481338843133355E-15, -1.224646799147353207E-16, 1.000000000000000000 ) ) ;
#152 = DIRECTION ( 'NONE',  ( 4.275831445896958607E-31, 1.000000000000000000, 1.224646799147353207E-16 ) ) ;
#153 = CARTESIAN_POINT ( 'NONE',  ( 3.491481338843132566E-15, 0.1099999999999998479, 0.9999999999999997780 ) ) ;
#154 = MECHANICAL_CONTEXT ( 'NONE', #6, 'mechanical' ) ;
#155 = EDGE_CURVE ( 'NONE', #7, #7, #128, .T. ) ;
#156 = VERTEX_POINT ( 'NONE', #76 ) ;
#157 = ADVANCED_FACE ( 'NONE', ( #51, #163 ), #135, .T. ) ;
#158 = AXIS2_PLACEMENT_3D ( 'NONE', #219, #121, #182 ) ;
#159 = CC_DESIGN_DATE_AND_TIME_ASSIGNMENT ( #192, #78, ( #12 ) ) ;
#160 = COORDINATED_UNIVERSAL_TIME_OFFSET ( 1, 0, .AHEAD. ) ;
#161 = CLOSED_SHELL ( 'NONE', ( #69, #196, #126 ) ) ;
#162 = CARTESIAN_POINT ( 'NONE',  ( 1.047444401652940007E-13, -3.673940397442059178E-15, 30.00000000000000000 ) ) ;
#163 = FACE_BOUND ( 'NONE', #206, .T. ) ;
#164 = CARTESIAN_POINT ( 'NONE',  ( 3.491481338843132566E-15, -1.224646799147352961E-16, 0.9999999999999997780 ) ) ;
#165 = AXIS2_PLACEMENT_3D ( 'NONE', #72, #136, #181 ) ;
#166 = LOCAL_TIME ( 15, 46, 44.00000000000000000, #13 ) ;
#167 = FACE_OUTER_BOUND ( 'NONE', #1, .T. ) ;
#168 = VERTEX_POINT ( 'NONE', #88 ) ;
#169 = DIRECTION ( 'NONE',  ( 0.0000000000000000000, 0.0000000000000000000, 1.000000000000000000 ) ) ;
#170 = CC_DESIGN_APPROVAL ( #127, ( #12 ) ) ;
#171 = DATE_AND_TIME ( #221, #166 ) ;
#172 = APPROVAL_DATE_TIME ( #67, #127 ) ;
#173 = APPROVAL_STATUS ( 'not_yet_approved' ) ;
#174 = APPROVAL_PERSON_ORGANIZATION ( #148, #127, #94 ) ;
#175 = EDGE_LOOP ( 'NONE', ( #23 ) ) ;
#176 = EDGE_CURVE ( 'NONE', #156, #156, #58, .T. ) ;
#177 = DIRECTION ( 'NONE',  ( 4.275831445896958607E-31, 1.000000000000000000, 1.224646799147353207E-16 ) ) ;
#178 = EDGE_LOOP ( 'NONE', ( #82 ) ) ;
#179 = LOCAL_TIME ( 15, 46, 44.00000000000000000, #193 ) ;
#180 = FACE_OUTER_BOUND ( 'NONE', #39, .T. ) ;
#181 = DIRECTION ( 'NONE',  ( 4.275831445896958607E-31, 1.000000000000000000, 1.224646799147353207E-16 ) ) ;
#182 = DIRECTION ( 'NONE',  ( 0.0000000000000000000, 1.000000000000000000, 0.0000000000000000000 ) ) ;
#183 = VERTEX_POINT ( 'NONE', #101 ) ;
#184 = DIRECTION ( 'NONE',  ( 0.0000000000000000000, 1.000000000000000000, 0.0000000000000000000 ) ) ;
#185 = PERSON_AND_ORGANIZATION ( #137, #112 ) ;
#186 = CIRCLE ( 'NONE', #90, 0.4999999999999966693 ) ;
#187 = PERSON_AND_ORGANIZATION_ROLE ( 'creator' ) ;
#188 =( NAMED_UNIT ( * ) PLANE_ANGLE_UNIT ( ) SI_UNIT ( $, .RADIAN. ) );
#189 = ORIENTED_EDGE ( 'NONE', *, *, #118, .T. ) ;
#190 = ORIENTED_EDGE ( 'NONE', *, *, #118, .F. ) ;
#191 = ORIENTED_EDGE ( 'NONE', *, *, #17, .F. ) ;
#192 = DATE_AND_TIME ( #62, #144 ) ;
#193 = COORDINATED_UNIVERSAL_TIME_OFFSET ( 1, 0, .AHEAD. ) ;
#194 = FACE_OUTER_BOUND ( 'NONE', #21, .T. ) ;
#195 = DIRECTION ( 'NONE',  ( -3.491481338843133355E-15, 1.224646799147353207E-16, -1.000000000000000000 ) ) ;
#196 = ADVANCED_FACE ( 'NONE', ( #84, #180 ), #98, .T. ) ;
#197 = DIRECTION ( 'NONE',  ( -3.491481338843133355E-15, 1.224646799147353207E-16, -1.000000000000000000 ) ) ;
#198 = DIRECTION ( 'NONE',  ( 0.0000000000000000000, 1.000000000000000000, 0.0000000000000000000 ) ) ;
#199 = CC_DESIGN_PERSON_AND_ORGANIZATION_ASSIGNMENT ( #142, #201, ( #63 ) ) ;
#200 = DIRECTION ( 'NONE',  ( 4.377113509970994556E-31, 1.000000000000000000, 1.232047923278983432E-16 ) ) ;
#201 = PERSON_AND_ORGANIZATION_ROLE ( 'design_owner' ) ;
#202 = APPROVAL_DATE_TIME ( #171, #218 ) ;
#203 = CC_DESIGN_PERSON_AND_ORGANIZATION_ASSIGNMENT ( #209, #114, ( #12 ) ) ;
#204 = LOCAL_TIME ( 15, 46, 44.00000000000000000, #38 ) ;
#205 = CC_DESIGN_PERSON_AND_ORGANIZATION_ASSIGNMENT ( #132, #46, ( #48 ) ) ;
#206 = EDGE_LOOP ( 'NONE', ( #147 ) ) ;
#207 = CC_DESIGN_APPROVAL ( #218, ( #75 ) ) ;
#208 = EDGE_LOOP ( 'NONE', ( #130 ) ) ;
#209 = PERSON_AND_ORGANIZATION ( #137, #112 ) ;
#210 = ORIENTED_EDGE ( 'NONE', *, *, #143, .T. ) ;
#211 = FACE_OUTER_BOUND ( 'NONE', #108, .T. ) ;
#212 = AXIS2_PLACEMENT_3D ( 'NONE', #138, #10, #200 ) ;
#213 = DIRECTION ( 'NONE',  ( -3.491481338843133355E-15, 1.224646799147353207E-16, -1.000000000000000000 ) ) ;
#214 = APPROVAL_STATUS ( 'not_yet_approved' ) ;
#215 = CARTESIAN_POINT ( 'NONE',  ( 1.043952920314096810E-13, -3.661693929450586610E-15, 29.89999999999999858 ) ) ;
#216 = DIRECTION ( 'NONE',  ( 0.0000000000000000000, 1.000000000000000000, 0.0000000000000000000 ) ) ;
#217 = VERTEX_POINT ( 'NONE', #73 ) ;
#218 = APPROVAL ( #103, 'UNSPECIFIED' ) ;
#219 = CARTESIAN_POINT ( 'NONE',  ( 1.047444401652940007E-13, -3.673940397442059178E-15, 30.00000000000000000 ) ) ;
#220 =( NAMED_UNIT ( * ) SI_UNIT ( $, .STERADIAN. ) SOLID_ANGLE_UNIT ( ) );
#221 = CALENDAR_DATE ( 2021, 7, 10 ) ;
#222 = ADVANCED_BREP_SHAPE_REPRESENTATION ( '36928', ( #43, #120, #53 ), #34 ) ;
#223 =( LENGTH_UNIT ( ) NAMED_UNIT ( * ) SI_UNIT ( .MILLI., .METRE. ) );
ENDSEC;
END-ISO-10303-21;
