ISO-10303-21;
HEADER;
FILE_DESCRIPTION (( 'STEP AP203' ),
    '1' );
FILE_NAME ('36927.step',
    '2021-10-07T13:46:44',
    ( '' ),
    ( '' ),
    'SwSTEP 2.0',
    'SolidWorks 2019',
    '' );
FILE_SCHEMA (( 'CONFIG_CONTROL_DESIGN' ));
ENDSEC;

DATA;
#1 = FACE_OUTER_BOUND ( 'NONE', #119, .T. ) ;
#2 = CARTESIAN_POINT ( 'NONE',  ( 2.202788320509504109E-16, -7.726341355170962603E-18, 0.06309036499789444363 ) ) ;
#3 = EDGE_CURVE ( 'NONE', #206, #206, #136, .T. ) ;
#4 = PERSON_AND_ORGANIZATION ( #37, #25 ) ;
#5 = CONICAL_SURFACE ( 'NONE', #186, 0.4999999999999966693, 0.2617993877991427465 ) ;
#6 = DATE_AND_TIME ( #196, #223 ) ;
#7 = DATE_AND_TIME ( #23, #181 ) ;
#8 = DATE_TIME_ROLE ( 'classification_date' ) ;
#9 = CARTESIAN_POINT ( 'NONE',  ( 0.0000000000000000000, 0.0000000000000000000, 0.0000000000000000000 ) ) ;
#10 = CC_DESIGN_APPROVAL ( #28, ( #199 ) ) ;
#11 = AXIS2_PLACEMENT_3D ( 'NONE', #15, #40, #220 ) ;
#12 = EDGE_LOOP ( 'NONE', ( #183 ) ) ;
#13 = FACE_BOUND ( 'NONE', #80, .T. ) ;
#14 = DIRECTION ( 'NONE',  ( 0.0000000000000000000, 1.000000000000000000, 0.0000000000000000000 ) ) ;
#15 = CARTESIAN_POINT ( 'NONE',  ( 2.202788320509504109E-16, -7.726341355170962603E-18, 0.06309036499789444363 ) ) ;
#16 = LOCAL_TIME ( 15, 46, 44.00000000000000000, #93 ) ;
#17 = ADVANCED_FACE ( 'NONE', ( #116 ), #27, .F. ) ;
#18 = DIRECTION ( 'NONE',  ( 3.491481338843133355E-15, -1.224646799147353207E-16, 1.000000000000000000 ) ) ;
#19 = FACE_OUTER_BOUND ( 'NONE', #12, .T. ) ;
#20 = PERSON_AND_ORGANIZATION ( #37, #25 ) ;
#21 = DIRECTION ( 'NONE',  ( 0.0000000000000000000, 0.0000000000000000000, 1.000000000000000000 ) ) ;
#22 = APPROVAL_STATUS ( 'not_yet_approved' ) ;
#23 = CALENDAR_DATE ( 2021, 7, 10 ) ;
#24 = APPROVAL_DATE_TIME ( #75, #28 ) ;
#25 = ORGANIZATION ( 'UNSPECIFIED', 'UNSPECIFIED', '' ) ;
#26 = EDGE_LOOP ( 'NONE', ( #185 ) ) ;
#27 = PLANE ( 'NONE',  #39 ) ;
#28 = APPROVAL ( #22, 'UNSPECIFIED' ) ;
#29 = AXIS2_PLACEMENT_3D ( 'NONE', #2, #193, #87 ) ;
#30 = APPROVAL_PERSON_ORGANIZATION ( #94, #28, #129 ) ;
#31 = CARTESIAN_POINT ( 'NONE',  ( 1.043952920314096810E-13, -3.661693929450586610E-15, 29.89999999999999858 ) ) ;
#32 = EDGE_CURVE ( 'NONE', #191, #191, #147, .T. ) ;
#33 = CC_DESIGN_APPROVAL ( #143, ( #61 ) ) ;
#34 = VERTEX_POINT ( 'NONE', #103 ) ;
#35 = MANIFOLD_SOLID_BREP ( 'Corps-Déplacer/Copier1[1]', #158 ) ;
#36 = FACE_BOUND ( 'NONE', #163, .T. ) ;
#37 = PERSON ( 'UNSPECIFIED', 'UNSPECIFIED', 'UNSPECIFIED', ('UNSPECIFIED'), ('UNSPECIFIED'), ('UNSPECIFIED') ) ;
#38 = CARTESIAN_POINT ( 'NONE',  ( 8.638483710188493606E-15, -3.029972209066472067E-16, 2.474160068989733396 ) ) ;
#39 = AXIS2_PLACEMENT_3D ( 'NONE', #97, #90, #89 ) ;
#40 = DIRECTION ( 'NONE',  ( 3.491481338843133355E-15, -1.224646799147353207E-16, 1.000000000000000000 ) ) ;
#41 = PERSON_AND_ORGANIZATION ( #37, #25 ) ;
#42 = VERTEX_POINT ( 'NONE', #60 ) ;
#43 = APPROVAL_STATUS ( 'not_yet_approved' ) ;
#44 = CALENDAR_DATE ( 2021, 7, 10 ) ;
#45 = CONICAL_SURFACE ( 'NONE', #11, 0.1049999999999998851, 1.029744258676649871 ) ;
#46 = ORIENTED_EDGE ( 'NONE', *, *, #58, .F. ) ;
#47 = DIRECTION ( 'NONE',  ( 0.0000000000000000000, 1.000000000000000000, 0.0000000000000000000 ) ) ;
#48 = CC_DESIGN_PERSON_AND_ORGANIZATION_ASSIGNMENT ( #160, #157, ( #115 ) ) ;
#49 = EDGE_LOOP ( 'NONE', ( #203 ) ) ;
#50 = DIRECTION ( 'NONE',  ( -3.491481338843133355E-15, 1.224646799147353207E-16, -1.000000000000000000 ) ) ;
#51 = CARTESIAN_POINT ( 'NONE',  ( 8.638483710188493606E-15, 0.4999999999999963363, 2.474160068989733396 ) ) ;
#52 = LOCAL_TIME ( 15, 46, 44.00000000000000000, #212 ) ;
#53 = CARTESIAN_POINT ( 'NONE',  ( 1.047444401652940007E-13, 2.999519565323660135E-33, 30.00000000000000000 ) ) ;
#54 = CARTESIAN_POINT ( 'NONE',  ( 3.491481338843133355E-15, 7.873738858974734651E-34, 1.000000000000000000 ) ) ;
#55 = FACE_OUTER_BOUND ( 'NONE', #26, .T. ) ;
#56 = AXIS2_PLACEMENT_3D ( 'NONE', #124, #141, #192 ) ;
#57 = COORDINATED_UNIVERSAL_TIME_OFFSET ( 1, 0, .AHEAD. ) ;
#58 = EDGE_CURVE ( 'NONE', #123, #123, #164, .T. ) ;
#59 = ADVANCED_BREP_SHAPE_REPRESENTATION ( '36927', ( #35, #182, #172 ), #165 ) ;
#60 = CARTESIAN_POINT ( 'NONE',  ( 3.491481338843133355E-15, 0.1049999999999998712, 1.000000000000000000 ) ) ;
#61 = SECURITY_CLASSIFICATION ( '', '', #128 ) ;
#62 =( LENGTH_UNIT ( ) NAMED_UNIT ( * ) SI_UNIT ( .MILLI., .METRE. ) );
#63 = ADVANCED_FACE ( 'NONE', ( #104, #36 ), #195, .T. ) ;
#64 = APPROVAL_DATE_TIME ( #96, #143 ) ;
#65 = EDGE_LOOP ( 'NONE', ( #79 ) ) ;
#66 = ORIENTED_EDGE ( 'NONE', *, *, #200, .F. ) ;
#67 = EDGE_CURVE ( 'NONE', #34, #34, #111, .T. ) ;
#68 = DIRECTION ( 'NONE',  ( -3.491481338843133355E-15, 1.224646799147353207E-16, -1.000000000000000000 ) ) ;
#69 = FACE_OUTER_BOUND ( 'NONE', #198, .T. ) ;
#70 = DIRECTION ( 'NONE',  ( 0.0000000000000000000, 1.000000000000000000, 0.0000000000000000000 ) ) ;
#71 = DIRECTION ( 'NONE',  ( 0.0000000000000000000, -1.000000000000000000, 0.0000000000000000000 ) ) ;
#72 = PERSON_AND_ORGANIZATION_ROLE ( 'creator' ) ;
#73 = PERSON_AND_ORGANIZATION ( #37, #25 ) ;
#74 = UNCERTAINTY_MEASURE_WITH_UNIT (LENGTH_MEASURE( 1.000000000000000082E-05 ), #62, 'distance_accuracy_value', 'NONE');
#75 = DATE_AND_TIME ( #95, #16 ) ;
#76 = PERSON_AND_ORGANIZATION ( #37, #25 ) ;
#77 = CIRCLE ( 'NONE', #98, 0.1049999999999999961 ) ;
#78 =( NAMED_UNIT ( * ) PLANE_ANGLE_UNIT ( ) SI_UNIT ( $, .RADIAN. ) );
#79 = ORIENTED_EDGE ( 'NONE', *, *, #184, .T. ) ;
#80 = EDGE_LOOP ( 'NONE', ( #66 ) ) ;
#81 = CALENDAR_DATE ( 2021, 7, 10 ) ;
#82 = ORIENTED_EDGE ( 'NONE', *, *, #32, .T. ) ;
#83 = CC_DESIGN_PERSON_AND_ORGANIZATION_ASSIGNMENT ( #76, #194, ( #199 ) ) ;
#84 = AXIS2_PLACEMENT_3D ( 'NONE', #54, #18, #142 ) ;
#85 = DIRECTION ( 'NONE',  ( 3.491481338843133355E-15, -1.224646799147353207E-16, 1.000000000000000000 ) ) ;
#86 = DIRECTION ( 'NONE',  ( 0.0000000000000000000, 1.000000000000000000, 0.0000000000000000000 ) ) ;
#87 = DIRECTION ( 'NONE',  ( 4.585547486636280678E-31, 1.000000000000000000, 1.290716872006554259E-16 ) ) ;
#88 = AXIS2_PLACEMENT_3D ( 'NONE', #156, #68, #155 ) ;
#89 = DIRECTION ( 'NONE',  ( -4.275831445896958607E-31, -1.000000000000000000, -1.224646799147353207E-16 ) ) ;
#90 = DIRECTION ( 'NONE',  ( 3.491481338843133355E-15, -1.224646799147353207E-16, 1.000000000000000000 ) ) ;
#91 = CC_DESIGN_PERSON_AND_ORGANIZATION_ASSIGNMENT ( #4, #72, ( #199 ) ) ;
#92 = APPLICATION_PROTOCOL_DEFINITION ( 'international standard', 'config_control_design', 1994, #135 ) ;
#93 = COORDINATED_UNIVERSAL_TIME_OFFSET ( 1, 0, .AHEAD. ) ;
#94 = PERSON_AND_ORGANIZATION ( #37, #25 ) ;
#95 = CALENDAR_DATE ( 2021, 7, 10 ) ;
#96 = DATE_AND_TIME ( #81, #52 ) ;
#97 = CARTESIAN_POINT ( 'NONE',  ( 3.491481338843133355E-15, 7.873738858974734651E-34, 1.000000000000000000 ) ) ;
#98 = AXIS2_PLACEMENT_3D ( 'NONE', #151, #153, #209 ) ;
#99 = PRODUCT ( '36927', '36927', '', ( #215 ) ) ;
#100 = ORIENTED_EDGE ( 'NONE', *, *, #67, .F. ) ;
#101 = DESIGN_CONTEXT ( 'detailed design', #135, 'design' ) ;
#102 = CARTESIAN_POINT ( 'NONE',  ( 1.047444401652940007E-13, -3.673940397442059178E-15, 30.00000000000000000 ) ) ;
#103 = CARTESIAN_POINT ( 'NONE',  ( 2.202788320509504602E-16, 0.1049999999999998712, 0.06309036499789445751 ) ) ;
#104 = FACE_OUTER_BOUND ( 'NONE', #132, .T. ) ;
#105 = DIRECTION ( 'NONE',  ( -3.491481338843133355E-15, 1.224646799147353207E-16, -1.000000000000000000 ) ) ;
#106 = AXIS2_PLACEMENT_3D ( 'NONE', #31, #121, #70 ) ;
#107 = CC_DESIGN_DATE_AND_TIME_ASSIGNMENT ( #7, #180, ( #115 ) ) ;
#108 = CARTESIAN_POINT ( 'NONE',  ( 1.047444401652940007E-13, -3.673940397442059178E-15, 30.00000000000000000 ) ) ;
#109 = PERSON_AND_ORGANIZATION_ROLE ( 'classification_officer' ) ;
#110 = APPROVAL ( #197, 'UNSPECIFIED' ) ;
#111 = CIRCLE ( 'NONE', #29, 0.1049999999999998851 ) ;
#112 =( NAMED_UNIT ( * ) SI_UNIT ( $, .STERADIAN. ) SOLID_ANGLE_UNIT ( ) );
#113 = DIRECTION ( 'NONE',  ( 1.000000000000000000, 0.0000000000000000000, 0.0000000000000000000 ) ) ;
#114 = AXIS2_PLACEMENT_3D ( 'NONE', #168, #105, #140 ) ;
#115 = PRODUCT_DEFINITION ( 'UNKNOWN', '', #199, #101 ) ;
#116 = FACE_OUTER_BOUND ( 'NONE', #118, .T. ) ;
#117 = LOCAL_TIME ( 15, 46, 44.00000000000000000, #174 ) ;
#118 = EDGE_LOOP ( 'NONE', ( #137 ) ) ;
#119 = EDGE_LOOP ( 'NONE', ( #100 ) ) ;
#120 = APPLICATION_CONTEXT ( 'configuration controlled 3d designs of mechanical parts and assemblies' ) ;
#121 = DIRECTION ( 'NONE',  ( -3.491481338843133355E-15, 1.224646799147353207E-16, -1.000000000000000000 ) ) ;
#122 = AXIS2_PLACEMENT_3D ( 'NONE', #133, #201, #47 ) ;
#123 = VERTEX_POINT ( 'NONE', #190 ) ;
#124 = CARTESIAN_POINT ( 'NONE',  ( 0.0000000000000000000, 0.0000000000000000000, 0.0000000000000000000 ) ) ;
#125 = FACE_OUTER_BOUND ( 'NONE', #146, .T. ) ;
#126 = ADVANCED_FACE ( 'NONE', ( #1, #167 ), #170, .T. ) ;
#127 = FACE_OUTER_BOUND ( 'NONE', #49, .T. ) ;
#128 = SECURITY_CLASSIFICATION_LEVEL ( 'unclassified' ) ;
#129 = APPROVAL_ROLE ( '' ) ;
#130 = DATE_AND_TIME ( #44, #117 ) ;
#131 = CC_DESIGN_PERSON_AND_ORGANIZATION_ASSIGNMENT ( #20, #179, ( #99 ) ) ;
#132 = EDGE_LOOP ( 'NONE', ( #218 ) ) ;
#133 = CARTESIAN_POINT ( 'NONE',  ( 8.638483710188493606E-15, -3.029972209066472067E-16, 2.474160068989733396 ) ) ;
#134 = EDGE_LOOP ( 'NONE', ( #46 ) ) ;
#135 = APPLICATION_CONTEXT ( 'configuration controlled 3d designs of mechanical parts and assemblies' ) ;
#136 = CIRCLE ( 'NONE', #122, 0.4999999999999966693 ) ;
#137 = ORIENTED_EDGE ( 'NONE', *, *, #200, .T. ) ;
#138 = DIRECTION ( 'NONE',  ( 4.275831445896958607E-31, 1.000000000000000000, 1.224646799147353207E-16 ) ) ;
#139 = CYLINDRICAL_SURFACE ( 'NONE', #56, 0.4999999999999982792 ) ;
#140 = DIRECTION ( 'NONE',  ( 0.0000000000000000000, 1.000000000000000000, 0.0000000000000000000 ) ) ;
#141 = DIRECTION ( 'NONE',  ( -3.491481338843133355E-15, 1.224646799147353207E-16, -1.000000000000000000 ) ) ;
#142 = DIRECTION ( 'NONE',  ( -4.275831445896958607E-31, -1.000000000000000000, -1.224646799147353207E-16 ) ) ;
#143 = APPROVAL ( #43, 'UNSPECIFIED' ) ;
#144 = APPROVAL_ROLE ( '' ) ;
#145 = PERSON_AND_ORGANIZATION ( #37, #25 ) ;
#146 = EDGE_LOOP ( 'NONE', ( #202 ) ) ;
#147 = CIRCLE ( 'NONE', #106, 0.5000000000000000000 ) ;
#148 = ADVANCED_FACE ( 'NONE', ( #13, #55 ), #5, .T. ) ;
#149 = APPROVAL_PERSON_ORGANIZATION ( #145, #110, #177 ) ;
#150 = ADVANCED_FACE ( 'NONE', ( #127 ), #45, .T. ) ;
#151 = CARTESIAN_POINT ( 'NONE',  ( 3.491481338843133355E-15, -1.224646799147353207E-16, 1.000000000000000000 ) ) ;
#152 = VERTEX_POINT ( 'NONE', #221 ) ;
#153 = DIRECTION ( 'NONE',  ( -3.491481338843133355E-15, 1.224646799147353207E-16, -1.000000000000000000 ) ) ;
#154 = APPROVAL_PERSON_ORGANIZATION ( #73, #143, #144 ) ;
#155 = DIRECTION ( 'NONE',  ( 4.275831445896958607E-31, 1.000000000000000000, 1.224646799147353207E-16 ) ) ;
#156 = CARTESIAN_POINT ( 'NONE',  ( 0.0000000000000000000, 0.0000000000000000000, 0.0000000000000000000 ) ) ;
#157 = PERSON_AND_ORGANIZATION_ROLE ( 'creator' ) ;
#158 = CLOSED_SHELL ( 'NONE', ( #17, #148, #204, #63, #169 ) ) ;
#159 = CC_DESIGN_APPROVAL ( #110, ( #115 ) ) ;
#160 = PERSON_AND_ORGANIZATION ( #37, #25 ) ;
#161 = COORDINATED_UNIVERSAL_TIME_OFFSET ( 1, 0, .AHEAD. ) ;
#162 = PRODUCT_RELATED_PRODUCT_CATEGORY ( 'detail', '', ( #99 ) ) ;
#163 = EDGE_LOOP ( 'NONE', ( #187 ) ) ;
#164 = CIRCLE ( 'NONE', #175, 0.4000000000000000222 ) ;
#165 =( GEOMETRIC_REPRESENTATION_CONTEXT ( 3 ) GLOBAL_UNCERTAINTY_ASSIGNED_CONTEXT ( ( #74 ) ) GLOBAL_UNIT_ASSIGNED_CONTEXT ( ( #62, #78, #112 ) ) REPRESENTATION_CONTEXT ( 'NONE', 'WORKASPACE' ) );
#166 = AXIS2_PLACEMENT_3D ( 'NONE', #53, #208, #138 ) ;
#167 = FACE_OUTER_BOUND ( 'NONE', #65, .T. ) ;
#168 = CARTESIAN_POINT ( 'NONE',  ( 3.491481338843133355E-15, -1.224646799147353207E-16, 1.000000000000000000 ) ) ;
#169 = ADVANCED_FACE ( 'NONE', ( #171 ), #173, .F. ) ;
#170 = CYLINDRICAL_SURFACE ( 'NONE', #88, 0.1049999999999999406 ) ;
#171 = FACE_OUTER_BOUND ( 'NONE', #134, .T. ) ;
#172 = AXIS2_PLACEMENT_3D ( 'NONE', #9, #21, #113 ) ;
#173 = PLANE ( 'NONE',  #166 ) ;
#174 = COORDINATED_UNIVERSAL_TIME_OFFSET ( 1, 0, .AHEAD. ) ;
#175 = AXIS2_PLACEMENT_3D ( 'NONE', #108, #189, #14 ) ;
#176 = PRODUCT_DEFINITION_SHAPE ( 'NONE', 'NONE',  #115 ) ;
#177 = APPROVAL_ROLE ( '' ) ;
#178 = ADVANCED_FACE ( 'NONE', ( #19 ), #205, .T. ) ;
#179 = PERSON_AND_ORGANIZATION_ROLE ( 'design_owner' ) ;
#180 = DATE_TIME_ROLE ( 'creation_date' ) ;
#181 = LOCAL_TIME ( 15, 46, 44.00000000000000000, #57 ) ;
#182 = MANIFOLD_SOLID_BREP ( 'Corps-Déplacer/Copier1[2]', #207 ) ;
#183 = ORIENTED_EDGE ( 'NONE', *, *, #184, .F. ) ;
#184 = EDGE_CURVE ( 'NONE', #152, #152, #77, .T. ) ;
#185 = ORIENTED_EDGE ( 'NONE', *, *, #3, .T. ) ;
#186 = AXIS2_PLACEMENT_3D ( 'NONE', #38, #85, #71 ) ;
#187 = ORIENTED_EDGE ( 'NONE', *, *, #58, .T. ) ;
#188 = SHAPE_DEFINITION_REPRESENTATION ( #176, #59 ) ;
#189 = DIRECTION ( 'NONE',  ( -3.491481338843133355E-15, 1.224646799147353207E-16, -1.000000000000000000 ) ) ;
#190 = CARTESIAN_POINT ( 'NONE',  ( 1.047444401652940007E-13, 0.3999999999999963585, 30.00000000000000000 ) ) ;
#191 = VERTEX_POINT ( 'NONE', #210 ) ;
#192 = DIRECTION ( 'NONE',  ( 4.275831445896958607E-31, 1.000000000000000000, 1.224646799147353207E-16 ) ) ;
#193 = DIRECTION ( 'NONE',  ( -3.491481338843133355E-15, 1.224646799147353207E-16, -1.000000000000000000 ) ) ;
#194 = PERSON_AND_ORGANIZATION_ROLE ( 'design_supplier' ) ;
#195 = CONICAL_SURFACE ( 'NONE', #222, 0.4000000000000000222, 0.7853981633974512766 ) ;
#196 = CALENDAR_DATE ( 2021, 7, 10 ) ;
#197 = APPROVAL_STATUS ( 'not_yet_approved' ) ;
#198 = EDGE_LOOP ( 'NONE', ( #82 ) ) ;
#199 = PRODUCT_DEFINITION_FORMATION_WITH_SPECIFIED_SOURCE ( 'ANY', '', #99, .NOT_KNOWN. ) ;
#200 = EDGE_CURVE ( 'NONE', #42, #42, #219, .T. ) ;
#201 = DIRECTION ( 'NONE',  ( -3.491481338843133355E-15, 1.224646799147353207E-16, -1.000000000000000000 ) ) ;
#202 = ORIENTED_EDGE ( 'NONE', *, *, #3, .F. ) ;
#203 = ORIENTED_EDGE ( 'NONE', *, *, #67, .T. ) ;
#204 = ADVANCED_FACE ( 'NONE', ( #125, #69 ), #139, .T. ) ;
#205 = PLANE ( 'NONE',  #84 ) ;
#206 = VERTEX_POINT ( 'NONE', #51 ) ;
#207 = CLOSED_SHELL ( 'NONE', ( #150, #126, #178 ) ) ;
#208 = DIRECTION ( 'NONE',  ( -3.491481338843133355E-15, 1.224646799147353207E-16, -1.000000000000000000 ) ) ;
#209 = DIRECTION ( 'NONE',  ( 0.0000000000000000000, 1.000000000000000000, 0.0000000000000000000 ) ) ;
#210 = CARTESIAN_POINT ( 'NONE',  ( 1.043952920314096810E-13, 0.4999999999999963363, 29.89999999999999858 ) ) ;
#211 = CC_DESIGN_SECURITY_CLASSIFICATION ( #61, ( #199 ) ) ;
#212 = COORDINATED_UNIVERSAL_TIME_OFFSET ( 1, 0, .AHEAD. ) ;
#213 = APPROVAL_DATE_TIME ( #130, #110 ) ;
#214 = CC_DESIGN_PERSON_AND_ORGANIZATION_ASSIGNMENT ( #41, #109, ( #61 ) ) ;
#215 = MECHANICAL_CONTEXT ( 'NONE', #120, 'mechanical' ) ;
#216 = APPLICATION_PROTOCOL_DEFINITION ( 'international standard', 'config_control_design', 1994, #120 ) ;
#217 = CC_DESIGN_DATE_AND_TIME_ASSIGNMENT ( #6, #8, ( #61 ) ) ;
#218 = ORIENTED_EDGE ( 'NONE', *, *, #32, .F. ) ;
#219 = CIRCLE ( 'NONE', #114, 0.1049999999999999961 ) ;
#220 = DIRECTION ( 'NONE',  ( -4.585547486636280678E-31, -1.000000000000000000, -1.290716872006554259E-16 ) ) ;
#221 = CARTESIAN_POINT ( 'NONE',  ( 3.491481338843133355E-15, 0.1049999999999998712, 1.000000000000000000 ) ) ;
#222 = AXIS2_PLACEMENT_3D ( 'NONE', #102, #50, #86 ) ;
#223 = LOCAL_TIME ( 15, 46, 44.00000000000000000, #161 ) ;
ENDSEC;
END-ISO-10303-21;
