ISO-10303-21;
HEADER;
FILE_DESCRIPTION (( 'STEP AP203' ),
    '1' );
FILE_NAME ('36926.step',
    '2021-10-07T13:46:43',
    ( '' ),
    ( '' ),
    'SwSTEP 2.0',
    'SolidWorks 2019',
    '' );
FILE_SCHEMA (( 'CONFIG_CONTROL_DESIGN' ));
ENDSEC;

DATA;
#1 = ADVANCED_FACE ( 'NONE', ( #175, #160 ), #223, .T. ) ;
#2 = EDGE_LOOP ( 'NONE', ( #98 ) ) ;
#3 = VERTEX_POINT ( 'NONE', #126 ) ;
#4 = ADVANCED_FACE ( 'NONE', ( #35, #99 ), #188, .T. ) ;
#5 = DIRECTION ( 'NONE',  ( -3.491481338843133355E-15, 1.224646799147353207E-16, -1.000000000000000000 ) ) ;
#6 = FACE_OUTER_BOUND ( 'NONE', #81, .T. ) ;
#7 = AXIS2_PLACEMENT_3D ( 'NONE', #71, #42, #56 ) ;
#8 = FACE_OUTER_BOUND ( 'NONE', #142, .T. ) ;
#9 = DIRECTION ( 'NONE',  ( -3.491481338843133355E-15, 1.224646799147353207E-16, -1.000000000000000000 ) ) ;
#10 = CALENDAR_DATE ( 2021, 7, 10 ) ;
#11 = COORDINATED_UNIVERSAL_TIME_OFFSET ( 1, 0, .AHEAD. ) ;
#12 = CIRCLE ( 'NONE', #204, 0.4999999999999966693 ) ;
#13 = APPROVAL_ROLE ( '' ) ;
#14 = DATE_AND_TIME ( #155, #135 ) ;
#15 = AXIS2_PLACEMENT_3D ( 'NONE', #198, #127, #168 ) ;
#16 = UNCERTAINTY_MEASURE_WITH_UNIT (LENGTH_MEASURE( 1.000000000000000082E-05 ), #154, 'distance_accuracy_value', 'NONE');
#17 = EDGE_LOOP ( 'NONE', ( #64 ) ) ;
#18 = PRODUCT_DEFINITION ( 'UNKNOWN', '', #141, #140 ) ;
#19 = ORIENTED_EDGE ( 'NONE', *, *, #159, .F. ) ;
#20 = CARTESIAN_POINT ( 'NONE',  ( 1.043952920314096810E-13, -3.661693929450586610E-15, 29.89999999999999858 ) ) ;
#21 = CLOSED_SHELL ( 'NONE', ( #144, #1, #61, #4, #87 ) ) ;
#22 = LOCAL_TIME ( 15, 46, 43.00000000000000000, #222 ) ;
#23 = DIRECTION ( 'NONE',  ( 3.491481338843133355E-15, -1.224646799147353207E-16, 1.000000000000000000 ) ) ;
#24 = DIRECTION ( 'NONE',  ( 0.0000000000000000000, 1.000000000000000000, 0.0000000000000000000 ) ) ;
#25 = DIRECTION ( 'NONE',  ( 0.0000000000000000000, 1.000000000000000000, 0.0000000000000000000 ) ) ;
#26 = CC_DESIGN_PERSON_AND_ORGANIZATION_ASSIGNMENT ( #217, #199, ( #50 ) ) ;
#27 = PLANE ( 'NONE',  #185 ) ;
#28 = PERSON_AND_ORGANIZATION ( #85, #101 ) ;
#29 = ADVANCED_FACE ( 'NONE', ( #109 ), #192, .T. ) ;
#30 = COORDINATED_UNIVERSAL_TIME_OFFSET ( 1, 0, .AHEAD. ) ;
#31 = AXIS2_PLACEMENT_3D ( 'NONE', #164, #9, #196 ) ;
#32 = APPLICATION_PROTOCOL_DEFINITION ( 'international standard', 'config_control_design', 1994, #189 ) ;
#33 = DATE_AND_TIME ( #187, #36 ) ;
#34 = CIRCLE ( 'NONE', #57, 0.09999999999999989453 ) ;
#35 = FACE_OUTER_BOUND ( 'NONE', #100, .T. ) ;
#36 = LOCAL_TIME ( 15, 46, 43.00000000000000000, #63 ) ;
#37 = ORIENTED_EDGE ( 'NONE', *, *, #125, .F. ) ;
#38 = PLANE ( 'NONE',  #15 ) ;
#39 = CARTESIAN_POINT ( 'NONE',  ( 3.491481338843133355E-15, 0.09999999999999996392, 1.000000000000000000 ) ) ;
#40 =( GEOMETRIC_REPRESENTATION_CONTEXT ( 3 ) GLOBAL_UNCERTAINTY_ASSIGNED_CONTEXT ( ( #16 ) ) GLOBAL_UNIT_ASSIGNED_CONTEXT ( ( #154, #116, #76 ) ) REPRESENTATION_CONTEXT ( 'NONE', 'WORKASPACE' ) );
#41 = CARTESIAN_POINT ( 'NONE',  ( 1.047444401652940007E-13, -3.673940397442059178E-15, 30.00000000000000000 ) ) ;
#42 = DIRECTION ( 'NONE',  ( 3.491481338843133355E-15, -1.224646799147353207E-16, 1.000000000000000000 ) ) ;
#43 = CC_DESIGN_PERSON_AND_ORGANIZATION_ASSIGNMENT ( #74, #150, ( #141 ) ) ;
#44 = CYLINDRICAL_SURFACE ( 'NONE', #172, 0.4999999999999982792 ) ;
#45 = DATE_AND_TIME ( #10, #22 ) ;
#46 = CALENDAR_DATE ( 2021, 7, 10 ) ;
#47 = APPROVAL ( #79, 'UNSPECIFIED' ) ;
#48 = PERSON_AND_ORGANIZATION ( #85, #101 ) ;
#49 = DIRECTION ( 'NONE',  ( 3.491481338843133355E-15, -1.224646799147353207E-16, 1.000000000000000000 ) ) ;
#50 = SECURITY_CLASSIFICATION ( '', '', #215 ) ;
#51 = DATE_AND_TIME ( #138, #157 ) ;
#52 = PRODUCT_RELATED_PRODUCT_CATEGORY ( 'detail', '', ( #113 ) ) ;
#53 = EDGE_LOOP ( 'NONE', ( #207 ) ) ;
#54 = CC_DESIGN_SECURITY_CLASSIFICATION ( #50, ( #141 ) ) ;
#55 = DIRECTION ( 'NONE',  ( 3.491481338843133355E-15, -1.224646799147353207E-16, 1.000000000000000000 ) ) ;
#56 = DIRECTION ( 'NONE',  ( -4.275831445896958607E-31, -1.000000000000000000, -1.224646799147353207E-16 ) ) ;
#57 = AXIS2_PLACEMENT_3D ( 'NONE', #178, #181, #166 ) ;
#58 = FACE_OUTER_BOUND ( 'NONE', #163, .T. ) ;
#59 = CARTESIAN_POINT ( 'NONE',  ( 0.0000000000000000000, 0.0000000000000000000, 0.0000000000000000000 ) ) ;
#60 = CARTESIAN_POINT ( 'NONE',  ( 1.047444401652940007E-13, 0.3999999999999963585, 30.00000000000000000 ) ) ;
#61 = ADVANCED_FACE ( 'NONE', ( #129, #6 ), #44, .T. ) ;
#62 = APPROVAL_ROLE ( '' ) ;
#63 = COORDINATED_UNIVERSAL_TIME_OFFSET ( 1, 0, .AHEAD. ) ;
#64 = ORIENTED_EDGE ( 'NONE', *, *, #182, .T. ) ;
#65 = MANIFOLD_SOLID_BREP ( 'Corps-Déplacer/Copier1[1]', #21 ) ;
#66 = CC_DESIGN_APPROVAL ( #174, ( #50 ) ) ;
#67 = EDGE_LOOP ( 'NONE', ( #68 ) ) ;
#68 = ORIENTED_EDGE ( 'NONE', *, *, #182, .F. ) ;
#69 = VERTEX_POINT ( 'NONE', #60 ) ;
#70 = DIRECTION ( 'NONE',  ( 4.275831445896958607E-31, 1.000000000000000000, 1.224646799147353207E-16 ) ) ;
#71 = CARTESIAN_POINT ( 'NONE',  ( 3.491481338843133355E-15, 7.498798913309276065E-34, 1.000000000000000000 ) ) ;
#72 = CONICAL_SURFACE ( 'NONE', #84, 0.09999999999999989453, 1.029744258676649649 ) ;
#73 = CARTESIAN_POINT ( 'NONE',  ( 2.097893638580481278E-16, 0.09999999999999988065, 0.06008606190275663644 ) ) ;
#74 = PERSON_AND_ORGANIZATION ( #85, #101 ) ;
#75 = CARTESIAN_POINT ( 'NONE',  ( 0.0000000000000000000, 0.0000000000000000000, 0.0000000000000000000 ) ) ;
#76 =( NAMED_UNIT ( * ) SI_UNIT ( $, .STERADIAN. ) SOLID_ANGLE_UNIT ( ) );
#77 = COORDINATED_UNIVERSAL_TIME_OFFSET ( 1, 0, .AHEAD. ) ;
#78 = CC_DESIGN_PERSON_AND_ORGANIZATION_ASSIGNMENT ( #184, #200, ( #141 ) ) ;
#79 = APPROVAL_STATUS ( 'not_yet_approved' ) ;
#80 = AXIS2_PLACEMENT_3D ( 'NONE', #180, #5, #24 ) ;
#81 = EDGE_LOOP ( 'NONE', ( #103 ) ) ;
#82 = EDGE_LOOP ( 'NONE', ( #190 ) ) ;
#83 = CYLINDRICAL_SURFACE ( 'NONE', #31, 0.09999999999999999167 ) ;
#84 = AXIS2_PLACEMENT_3D ( 'NONE', #105, #55, #165 ) ;
#85 = PERSON ( 'UNSPECIFIED', 'UNSPECIFIED', 'UNSPECIFIED', ('UNSPECIFIED'), ('UNSPECIFIED'), ('UNSPECIFIED') ) ;
#86 = FACE_OUTER_BOUND ( 'NONE', #17, .T. ) ;
#87 = ADVANCED_FACE ( 'NONE', ( #8 ), #38, .F. ) ;
#88 = CARTESIAN_POINT ( 'NONE',  ( 3.491481338843133355E-15, 7.498798913309276065E-34, 1.000000000000000000 ) ) ;
#89 = CARTESIAN_POINT ( 'NONE',  ( 3.491481338843133355E-15, -1.224646799147353207E-16, 1.000000000000000000 ) ) ;
#90 = AXIS2_PLACEMENT_3D ( 'NONE', #203, #49, #118 ) ;
#91 = DIRECTION ( 'NONE',  ( -3.491481338843133355E-15, 1.224646799147353207E-16, -1.000000000000000000 ) ) ;
#92 = PERSON_AND_ORGANIZATION ( #85, #101 ) ;
#93 = CC_DESIGN_APPROVAL ( #122, ( #141 ) ) ;
#94 = APPLICATION_PROTOCOL_DEFINITION ( 'international standard', 'config_control_design', 1994, #115 ) ;
#95 = EDGE_CURVE ( 'NONE', #212, #212, #34, .T. ) ;
#96 = PERSON_AND_ORGANIZATION_ROLE ( 'design_owner' ) ;
#97 = APPROVAL_STATUS ( 'not_yet_approved' ) ;
#98 = ORIENTED_EDGE ( 'NONE', *, *, #95, .T. ) ;
#99 = FACE_BOUND ( 'NONE', #53, .T. ) ;
#100 = EDGE_LOOP ( 'NONE', ( #19 ) ) ;
#101 = ORGANIZATION ( 'UNSPECIFIED', 'UNSPECIFIED', '' ) ;
#102 = CC_DESIGN_DATE_AND_TIME_ASSIGNMENT ( #112, #183, ( #50 ) ) ;
#103 = ORIENTED_EDGE ( 'NONE', *, *, #159, .T. ) ;
#104 = DIRECTION ( 'NONE',  ( 0.0000000000000000000, 1.000000000000000000, 0.0000000000000000000 ) ) ;
#105 = CARTESIAN_POINT ( 'NONE',  ( 2.097893638580480785E-16, -7.358420338258062190E-18, 0.06008606190275662257 ) ) ;
#106 = LOCAL_TIME ( 15, 46, 43.00000000000000000, #11 ) ;
#107 = FACE_OUTER_BOUND ( 'NONE', #2, .T. ) ;
#108 = DIRECTION ( 'NONE',  ( -3.491481338843133355E-15, 1.224646799147353207E-16, -1.000000000000000000 ) ) ;
#109 = FACE_OUTER_BOUND ( 'NONE', #162, .T. ) ;
#110 = CC_DESIGN_DATE_AND_TIME_ASSIGNMENT ( #33, #132, ( #18 ) ) ;
#111 = APPROVAL_DATE_TIME ( #45, #122 ) ;
#112 = DATE_AND_TIME ( #46, #106 ) ;
#113 = PRODUCT ( '36926', '36926', '', ( #218 ) ) ;
#114 = CC_DESIGN_PERSON_AND_ORGANIZATION_ASSIGNMENT ( #92, #96, ( #113 ) ) ;
#115 = APPLICATION_CONTEXT ( 'configuration controlled 3d designs of mechanical parts and assemblies' ) ;
#116 =( NAMED_UNIT ( * ) PLANE_ANGLE_UNIT ( ) SI_UNIT ( $, .RADIAN. ) );
#117 = APPROVAL_DATE_TIME ( #51, #174 ) ;
#118 = DIRECTION ( 'NONE',  ( 0.0000000000000000000, -1.000000000000000000, 0.0000000000000000000 ) ) ;
#119 = SHAPE_DEFINITION_REPRESENTATION ( #136, #197 ) ;
#120 = ORIENTED_EDGE ( 'NONE', *, *, #202, .F. ) ;
#121 = ORIENTED_EDGE ( 'NONE', *, *, #202, .T. ) ;
#122 = APPROVAL ( #97, 'UNSPECIFIED' ) ;
#123 = ORIENTED_EDGE ( 'NONE', *, *, #95, .F. ) ;
#124 = APPROVAL_PERSON_ORGANIZATION ( #28, #174, #62 ) ;
#125 = EDGE_CURVE ( 'NONE', #149, #149, #128, .T. ) ;
#126 = CARTESIAN_POINT ( 'NONE',  ( 1.043952920314096810E-13, 0.4999999999999963363, 29.89999999999999858 ) ) ;
#127 = DIRECTION ( 'NONE',  ( -3.491481338843133355E-15, 1.224646799147353207E-16, -1.000000000000000000 ) ) ;
#128 = CIRCLE ( 'NONE', #177, 0.1000000000000000888 ) ;
#129 = FACE_OUTER_BOUND ( 'NONE', #139, .T. ) ;
#130 = CARTESIAN_POINT ( 'NONE',  ( 1.047444401652940007E-13, -3.673940397442059178E-15, 30.00000000000000000 ) ) ;
#131 = PERSON_AND_ORGANIZATION ( #85, #101 ) ;
#132 = DATE_TIME_ROLE ( 'creation_date' ) ;
#133 = DIRECTION ( 'NONE',  ( 1.000000000000000000, 0.0000000000000000000, 0.0000000000000000000 ) ) ;
#134 = VERTEX_POINT ( 'NONE', #153 ) ;
#135 = LOCAL_TIME ( 15, 46, 43.00000000000000000, #77 ) ;
#136 = PRODUCT_DEFINITION_SHAPE ( 'NONE', 'NONE',  #18 ) ;
#137 = EDGE_CURVE ( 'NONE', #69, #69, #206, .T. ) ;
#138 = CALENDAR_DATE ( 2021, 7, 10 ) ;
#139 = EDGE_LOOP ( 'NONE', ( #120 ) ) ;
#140 = DESIGN_CONTEXT ( 'detailed design', #189, 'design' ) ;
#141 = PRODUCT_DEFINITION_FORMATION_WITH_SPECIFIED_SOURCE ( 'ANY', '', #113, .NOT_KNOWN. ) ;
#142 = EDGE_LOOP ( 'NONE', ( #191 ) ) ;
#143 = APPROVAL_PERSON_ORGANIZATION ( #173, #47, #13 ) ;
#144 = ADVANCED_FACE ( 'NONE', ( #86 ), #27, .F. ) ;
#145 = DIRECTION ( 'NONE',  ( 0.0000000000000000000, 1.000000000000000000, 0.0000000000000000000 ) ) ;
#146 = DIRECTION ( 'NONE',  ( -3.491481338843133355E-15, 1.224646799147353207E-16, -1.000000000000000000 ) ) ;
#147 = CARTESIAN_POINT ( 'NONE',  ( 8.703635638939700299E-15, -3.052824429445194289E-16, 2.492820323027578056 ) ) ;
#148 = DIRECTION ( 'NONE',  ( -3.491481338843133355E-15, 1.224646799147353207E-16, -1.000000000000000000 ) ) ;
#149 = VERTEX_POINT ( 'NONE', #214 ) ;
#150 = PERSON_AND_ORGANIZATION_ROLE ( 'design_supplier' ) ;
#151 = AXIS2_PLACEMENT_3D ( 'NONE', #75, #186, #133 ) ;
#152 = CC_DESIGN_PERSON_AND_ORGANIZATION_ASSIGNMENT ( #48, #170, ( #18 ) ) ;
#153 = CARTESIAN_POINT ( 'NONE',  ( 8.703635638939700299E-15, 0.4999999999999963363, 2.492820323027578056 ) ) ;
#154 =( LENGTH_UNIT ( ) NAMED_UNIT ( * ) SI_UNIT ( .MILLI., .METRE. ) );
#155 = CALENDAR_DATE ( 2021, 7, 10 ) ;
#156 = CC_DESIGN_APPROVAL ( #47, ( #18 ) ) ;
#157 = LOCAL_TIME ( 15, 46, 43.00000000000000000, #30 ) ;
#158 = APPROVAL_ROLE ( '' ) ;
#159 = EDGE_CURVE ( 'NONE', #3, #3, #201, .T. ) ;
#160 = FACE_OUTER_BOUND ( 'NONE', #176, .T. ) ;
#161 = APPROVAL_PERSON_ORGANIZATION ( #131, #122, #158 ) ;
#162 = EDGE_LOOP ( 'NONE', ( #37 ) ) ;
#163 = EDGE_LOOP ( 'NONE', ( #123 ) ) ;
#164 = CARTESIAN_POINT ( 'NONE',  ( 0.0000000000000000000, 0.0000000000000000000, 0.0000000000000000000 ) ) ;
#165 = DIRECTION ( 'NONE',  ( -4.814824860968094888E-31, -1.000000000000000000, -1.355252715606882022E-16 ) ) ;
#166 = DIRECTION ( 'NONE',  ( 4.814824860968094888E-31, 1.000000000000000000, 1.355252715606882022E-16 ) ) ;
#167 = ADVANCED_FACE ( 'NONE', ( #107 ), #72, .T. ) ;
#168 = DIRECTION ( 'NONE',  ( 4.275831445896958607E-31, 1.000000000000000000, 1.224646799147353207E-16 ) ) ;
#169 = DIRECTION ( 'NONE',  ( -3.491481338843133355E-15, 1.224646799147353207E-16, -1.000000000000000000 ) ) ;
#170 = PERSON_AND_ORGANIZATION_ROLE ( 'creator' ) ;
#171 = APPROVAL_STATUS ( 'not_yet_approved' ) ;
#172 = AXIS2_PLACEMENT_3D ( 'NONE', #59, #179, #70 ) ;
#173 = PERSON_AND_ORGANIZATION ( #85, #101 ) ;
#174 = APPROVAL ( #171, 'UNSPECIFIED' ) ;
#175 = FACE_BOUND ( 'NONE', #67, .T. ) ;
#176 = EDGE_LOOP ( 'NONE', ( #121 ) ) ;
#177 = AXIS2_PLACEMENT_3D ( 'NONE', #89, #146, #25 ) ;
#178 = CARTESIAN_POINT ( 'NONE',  ( 2.097893638580480785E-16, -7.358420338258062190E-18, 0.06008606190275662257 ) ) ;
#179 = DIRECTION ( 'NONE',  ( -3.491481338843133355E-15, 1.224646799147353207E-16, -1.000000000000000000 ) ) ;
#180 = CARTESIAN_POINT ( 'NONE',  ( 3.491481338843133355E-15, -1.224646799147353207E-16, 1.000000000000000000 ) ) ;
#181 = DIRECTION ( 'NONE',  ( -3.491481338843133355E-15, 1.224646799147353207E-16, -1.000000000000000000 ) ) ;
#182 = EDGE_CURVE ( 'NONE', #193, #193, #221, .T. ) ;
#183 = DATE_TIME_ROLE ( 'classification_date' ) ;
#184 = PERSON_AND_ORGANIZATION ( #85, #101 ) ;
#185 = AXIS2_PLACEMENT_3D ( 'NONE', #88, #23, #195 ) ;
#186 = DIRECTION ( 'NONE',  ( 0.0000000000000000000, 0.0000000000000000000, 1.000000000000000000 ) ) ;
#187 = CALENDAR_DATE ( 2021, 7, 10 ) ;
#188 = CONICAL_SURFACE ( 'NONE', #210, 0.4000000000000000222, 0.7853981633974512766 ) ;
#189 = APPLICATION_CONTEXT ( 'configuration controlled 3d designs of mechanical parts and assemblies' ) ;
#190 = ORIENTED_EDGE ( 'NONE', *, *, #125, .T. ) ;
#191 = ORIENTED_EDGE ( 'NONE', *, *, #137, .F. ) ;
#192 = PLANE ( 'NONE',  #7 ) ;
#193 = VERTEX_POINT ( 'NONE', #39 ) ;
#194 = AXIS2_PLACEMENT_3D ( 'NONE', #20, #91, #104 ) ;
#195 = DIRECTION ( 'NONE',  ( -4.275831445896958607E-31, -1.000000000000000000, -1.224646799147353207E-16 ) ) ;
#196 = DIRECTION ( 'NONE',  ( 4.275831445896958607E-31, 1.000000000000000000, 1.224646799147353207E-16 ) ) ;
#197 = ADVANCED_BREP_SHAPE_REPRESENTATION ( '36926', ( #65, #213, #151 ), #40 ) ;
#198 = CARTESIAN_POINT ( 'NONE',  ( 1.047444401652940007E-13, 2.999519565323660135E-33, 30.00000000000000000 ) ) ;
#199 = PERSON_AND_ORGANIZATION_ROLE ( 'classification_officer' ) ;
#200 = PERSON_AND_ORGANIZATION_ROLE ( 'creator' ) ;
#201 = CIRCLE ( 'NONE', #194, 0.5000000000000000000 ) ;
#202 = EDGE_CURVE ( 'NONE', #134, #134, #12, .T. ) ;
#203 = CARTESIAN_POINT ( 'NONE',  ( 8.703635638939700299E-15, -3.052824429445194289E-16, 2.492820323027578056 ) ) ;
#204 = AXIS2_PLACEMENT_3D ( 'NONE', #147, #148, #211 ) ;
#205 = ADVANCED_FACE ( 'NONE', ( #58, #208 ), #83, .T. ) ;
#206 = CIRCLE ( 'NONE', #216, 0.4000000000000000222 ) ;
#207 = ORIENTED_EDGE ( 'NONE', *, *, #137, .T. ) ;
#208 = FACE_OUTER_BOUND ( 'NONE', #82, .T. ) ;
#209 = DIRECTION ( 'NONE',  ( 0.0000000000000000000, 1.000000000000000000, 0.0000000000000000000 ) ) ;
#210 = AXIS2_PLACEMENT_3D ( 'NONE', #130, #108, #209 ) ;
#211 = DIRECTION ( 'NONE',  ( 0.0000000000000000000, 1.000000000000000000, 0.0000000000000000000 ) ) ;
#212 = VERTEX_POINT ( 'NONE', #73 ) ;
#213 = MANIFOLD_SOLID_BREP ( 'Corps-Déplacer/Copier1[2]', #220 ) ;
#214 = CARTESIAN_POINT ( 'NONE',  ( 3.491481338843133355E-15, 0.09999999999999996392, 1.000000000000000000 ) ) ;
#215 = SECURITY_CLASSIFICATION_LEVEL ( 'unclassified' ) ;
#216 = AXIS2_PLACEMENT_3D ( 'NONE', #41, #169, #145 ) ;
#217 = PERSON_AND_ORGANIZATION ( #85, #101 ) ;
#218 = MECHANICAL_CONTEXT ( 'NONE', #115, 'mechanical' ) ;
#219 = APPROVAL_DATE_TIME ( #14, #47 ) ;
#220 = CLOSED_SHELL ( 'NONE', ( #167, #205, #29 ) ) ;
#221 = CIRCLE ( 'NONE', #80, 0.1000000000000000888 ) ;
#222 = COORDINATED_UNIVERSAL_TIME_OFFSET ( 1, 0, .AHEAD. ) ;
#223 = CONICAL_SURFACE ( 'NONE', #90, 0.4999999999999966693, 0.2617993877991427465 ) ;
ENDSEC;
END-ISO-10303-21;
