ISO-10303-21;
HEADER;
FILE_DESCRIPTION (( 'STEP AP203' ),
    '1' );
FILE_NAME ('36925.step',
    '2021-10-07T13:46:42',
    ( '' ),
    ( '' ),
    'SwSTEP 2.0',
    'SolidWorks 2019',
    '' );
FILE_SCHEMA (( 'CONFIG_CONTROL_DESIGN' ));
ENDSEC;

DATA;
#1 = CC_DESIGN_PERSON_AND_ORGANIZATION_ASSIGNMENT ( #72, #172, ( #58 ) ) ;
#2 = PERSON_AND_ORGANIZATION_ROLE ( 'creator' ) ;
#3 = EDGE_LOOP ( 'NONE', ( #124 ) ) ;
#4 = DIRECTION ( 'NONE',  ( -3.491481338843133355E-15, 1.224646799147353207E-16, -1.000000000000000000 ) ) ;
#5 = AXIS2_PLACEMENT_3D ( 'NONE', #65, #182, #217 ) ;
#6 = ORIENTED_EDGE ( 'NONE', *, *, #171, .F. ) ;
#7 = CC_DESIGN_PERSON_AND_ORGANIZATION_ASSIGNMENT ( #139, #159, ( #147 ) ) ;
#8 =( NAMED_UNIT ( * ) PLANE_ANGLE_UNIT ( ) SI_UNIT ( $, .RADIAN. ) );
#9 = ORIENTED_EDGE ( 'NONE', *, *, #111, .T. ) ;
#10 = DIRECTION ( 'NONE',  ( 0.0000000000000000000, 1.000000000000000000, 0.0000000000000000000 ) ) ;
#11 = ORIENTED_EDGE ( 'NONE', *, *, #171, .T. ) ;
#12 = EDGE_CURVE ( 'NONE', #148, #148, #199, .T. ) ;
#13 = FACE_BOUND ( 'NONE', #117, .T. ) ;
#14 = ORGANIZATION ( 'UNSPECIFIED', 'UNSPECIFIED', '' ) ;
#15 = DIRECTION ( 'NONE',  ( 0.0000000000000000000, 1.000000000000000000, 0.0000000000000000000 ) ) ;
#16 =( NAMED_UNIT ( * ) SI_UNIT ( $, .STERADIAN. ) SOLID_ANGLE_UNIT ( ) );
#17 = APPROVAL_DATE_TIME ( #205, #32 ) ;
#18 = CIRCLE ( 'NONE', #107, 0.4000000000000000222 ) ;
#19 = COORDINATED_UNIVERSAL_TIME_OFFSET ( 1, 0, .AHEAD. ) ;
#20 = EDGE_LOOP ( 'NONE', ( #73 ) ) ;
#21 = DATE_AND_TIME ( #33, #59 ) ;
#22 = APPROVAL_STATUS ( 'not_yet_approved' ) ;
#23 = CIRCLE ( 'NONE', #118, 0.5000000000000000000 ) ;
#24 = LOCAL_TIME ( 15, 46, 42.00000000000000000, #221 ) ;
#25 = CONICAL_SURFACE ( 'NONE', #5, 0.4999999999999966693, 0.2617993877991428020 ) ;
#26 = FACE_OUTER_BOUND ( 'NONE', #208, .T. ) ;
#27 =( LENGTH_UNIT ( ) NAMED_UNIT ( * ) SI_UNIT ( .MILLI., .METRE. ) );
#28 = DIRECTION ( 'NONE',  ( -3.491481338843133355E-15, 1.224646799147353207E-16, -1.000000000000000000 ) ) ;
#29 = CARTESIAN_POINT ( 'NONE',  ( 0.0000000000000000000, 0.0000000000000000000, 0.0000000000000000000 ) ) ;
#30 = CONICAL_SURFACE ( 'NONE', #214, 0.4000000000000000222, 0.7853981633974512766 ) ;
#31 = VERTEX_POINT ( 'NONE', #165 ) ;
#32 = APPROVAL ( #54, 'UNSPECIFIED' ) ;
#33 = CALENDAR_DATE ( 2021, 7, 10 ) ;
#34 = DIRECTION ( 'NONE',  ( 0.0000000000000000000, 0.0000000000000000000, 1.000000000000000000 ) ) ;
#35 = CALENDAR_DATE ( 2021, 7, 10 ) ;
#36 = FACE_OUTER_BOUND ( 'NONE', #78, .T. ) ;
#37 = PLANE ( 'NONE',  #138 ) ;
#38 = APPROVAL_PERSON_ORGANIZATION ( #121, #198, #154 ) ;
#39 = DIRECTION ( 'NONE',  ( 3.491481338843133355E-15, -1.224646799147353207E-16, 1.000000000000000000 ) ) ;
#40 = DIRECTION ( 'NONE',  ( -3.491481338843133355E-15, 1.224646799147353207E-16, -1.000000000000000000 ) ) ;
#41 = AXIS2_PLACEMENT_3D ( 'NONE', #29, #97, #113 ) ;
#42 = CYLINDRICAL_SURFACE ( 'NONE', #123, 0.09499999999999997335 ) ;
#43 = DIRECTION ( 'NONE',  ( -3.491481338843133355E-15, 1.224646799147353207E-16, -1.000000000000000000 ) ) ;
#44 = FACE_OUTER_BOUND ( 'NONE', #183, .T. ) ;
#45 = DIRECTION ( 'NONE',  ( 0.0000000000000000000, 1.000000000000000000, 0.0000000000000000000 ) ) ;
#46 = CIRCLE ( 'NONE', #169, 0.09500000000000007050 ) ;
#47 = DIRECTION ( 'NONE',  ( -3.491481338843133355E-15, 1.224646799147353207E-16, -1.000000000000000000 ) ) ;
#48 = UNCERTAINTY_MEASURE_WITH_UNIT (LENGTH_MEASURE( 1.000000000000000082E-05 ), #27, 'distance_accuracy_value', 'NONE');
#49 = COORDINATED_UNIVERSAL_TIME_OFFSET ( 1, 0, .AHEAD. ) ;
#50 = MANIFOLD_SOLID_BREP ( 'Corps-Déplacer/Copier1[2]', #203 ) ;
#51 = CALENDAR_DATE ( 2021, 7, 10 ) ;
#52 = ADVANCED_FACE ( 'NONE', ( #36 ), #222, .F. ) ;
#53 = LOCAL_TIME ( 15, 46, 42.00000000000000000, #170 ) ;
#54 = APPROVAL_STATUS ( 'not_yet_approved' ) ;
#55 = MANIFOLD_SOLID_BREP ( 'Corps-Déplacer/Copier1[1]', #223 ) ;
#56 = DATE_AND_TIME ( #92, #53 ) ;
#57 = CIRCLE ( 'NONE', #80, 0.4999999999999966693 ) ;
#58 = PRODUCT_DEFINITION ( 'UNKNOWN', '', #175, #209 ) ;
#59 = LOCAL_TIME ( 15, 46, 42.00000000000000000, #102 ) ;
#60 = APPLICATION_CONTEXT ( 'configuration controlled 3d designs of mechanical parts and assemblies' ) ;
#61 = CARTESIAN_POINT ( 'NONE',  ( 1.992998956651456721E-16, -6.990499321345158695E-18, 0.05708175880761878762 ) ) ;
#62 = AXIS2_PLACEMENT_3D ( 'NONE', #201, #34, #155 ) ;
#63 = DIRECTION ( 'NONE',  ( 0.0000000000000000000, 1.000000000000000000, 0.0000000000000000000 ) ) ;
#64 = DIRECTION ( 'NONE',  ( 4.275831445896958607E-31, 1.000000000000000000, 1.224646799147353207E-16 ) ) ;
#65 = CARTESIAN_POINT ( 'NONE',  ( 8.768787567690906991E-15, -3.075676649823917497E-16, 2.511480577065422715 ) ) ;
#66 = VERTEX_POINT ( 'NONE', #196 ) ;
#67 = FACE_OUTER_BOUND ( 'NONE', #20, .T. ) ;
#68 = FACE_OUTER_BOUND ( 'NONE', #114, .T. ) ;
#69 = ORIENTED_EDGE ( 'NONE', *, *, #12, .T. ) ;
#70 = PERSON_AND_ORGANIZATION ( #210, #14 ) ;
#71 = ORIENTED_EDGE ( 'NONE', *, *, #12, .F. ) ;
#72 = PERSON_AND_ORGANIZATION ( #210, #14 ) ;
#73 = ORIENTED_EDGE ( 'NONE', *, *, #194, .T. ) ;
#74 = SECURITY_CLASSIFICATION_LEVEL ( 'unclassified' ) ;
#75 = PLANE ( 'NONE',  #160 ) ;
#76 = CC_DESIGN_SECURITY_CLASSIFICATION ( #147, ( #175 ) ) ;
#77 = CC_DESIGN_PERSON_AND_ORGANIZATION_ASSIGNMENT ( #136, #2, ( #175 ) ) ;
#78 = EDGE_LOOP ( 'NONE', ( #187 ) ) ;
#79 = ADVANCED_FACE ( 'NONE', ( #67 ), #37, .F. ) ;
#80 = AXIS2_PLACEMENT_3D ( 'NONE', #164, #146, #15 ) ;
#81 = EDGE_LOOP ( 'NONE', ( #6 ) ) ;
#82 = AXIS2_PLACEMENT_3D ( 'NONE', #61, #184, #86 ) ;
#83 = CARTESIAN_POINT ( 'NONE',  ( 8.768787567690906991E-15, 0.4999999999999963363, 2.511480577065422715 ) ) ;
#84 = PRODUCT_DEFINITION_SHAPE ( 'NONE', 'NONE',  #58 ) ;
#85 = FACE_OUTER_BOUND ( 'NONE', #81, .T. ) ;
#86 = DIRECTION ( 'NONE',  ( -5.068236695755889494E-31, -1.000000000000000000, -1.426581805901981114E-16 ) ) ;
#87 = AXIS2_PLACEMENT_3D ( 'NONE', #149, #40, #64 ) ;
#88 = ORIENTED_EDGE ( 'NONE', *, *, #141, .T. ) ;
#89 = PERSON_AND_ORGANIZATION ( #210, #14 ) ;
#90 = DIRECTION ( 'NONE',  ( -4.275831445896958607E-31, -1.000000000000000000, -1.224646799147353207E-16 ) ) ;
#91 = APPLICATION_PROTOCOL_DEFINITION ( 'international standard', 'config_control_design', 1994, #60 ) ;
#92 = CALENDAR_DATE ( 2021, 7, 10 ) ;
#93 = CONICAL_SURFACE ( 'NONE', #82, 0.09499999999999989009, 1.029744258676649649 ) ;
#94 = ADVANCED_FACE ( 'NONE', ( #131 ), #75, .T. ) ;
#95 = DIRECTION ( 'NONE',  ( 4.275831445896958607E-31, 1.000000000000000000, 1.224646799147353207E-16 ) ) ;
#96 = ADVANCED_FACE ( 'NONE', ( #133, #129 ), #25, .T. ) ;
#97 = DIRECTION ( 'NONE',  ( -3.491481338843133355E-15, 1.224646799147353207E-16, -1.000000000000000000 ) ) ;
#98 = DIRECTION ( 'NONE',  ( -3.491481338843133355E-15, 1.224646799147353207E-16, -1.000000000000000000 ) ) ;
#99 = CC_DESIGN_APPROVAL ( #198, ( #58 ) ) ;
#100 = CARTESIAN_POINT ( 'NONE',  ( 1.047444401652940007E-13, -3.673940397442059178E-15, 30.00000000000000000 ) ) ;
#101 = CARTESIAN_POINT ( 'NONE',  ( 3.491481338843133355E-15, 0.09499999999999994560, 1.000000000000000000 ) ) ;
#102 = COORDINATED_UNIVERSAL_TIME_OFFSET ( 1, 0, .AHEAD. ) ;
#103 = APPROVAL_ROLE ( '' ) ;
#104 = DATE_AND_TIME ( #51, #24 ) ;
#105 = PERSON_AND_ORGANIZATION_ROLE ( 'design_supplier' ) ;
#106 = EDGE_LOOP ( 'NONE', ( #11 ) ) ;
#107 = AXIS2_PLACEMENT_3D ( 'NONE', #100, #110, #63 ) ;
#108 = ADVANCED_FACE ( 'NONE', ( #44, #13 ), #30, .T. ) ;
#109 = CARTESIAN_POINT ( 'NONE',  ( 3.491481338843133355E-15, -1.224646799147353207E-16, 1.000000000000000000 ) ) ;
#110 = DIRECTION ( 'NONE',  ( -3.491481338843133355E-15, 1.224646799147353207E-16, -1.000000000000000000 ) ) ;
#111 = EDGE_CURVE ( 'NONE', #216, #216, #193, .T. ) ;
#112 = CARTESIAN_POINT ( 'NONE',  ( 1.047444401652940007E-13, -3.673940397442059178E-15, 30.00000000000000000 ) ) ;
#113 = DIRECTION ( 'NONE',  ( 4.275831445896958607E-31, 1.000000000000000000, 1.224646799147353207E-16 ) ) ;
#114 = EDGE_LOOP ( 'NONE', ( #88 ) ) ;
#115 = CARTESIAN_POINT ( 'NONE',  ( 0.0000000000000000000, 0.0000000000000000000, 0.0000000000000000000 ) ) ;
#116 = MECHANICAL_CONTEXT ( 'NONE', #173, 'mechanical' ) ;
#117 = EDGE_LOOP ( 'NONE', ( #137 ) ) ;
#118 = AXIS2_PLACEMENT_3D ( 'NONE', #197, #43, #45 ) ;
#119 = DATE_AND_TIME ( #202, #162 ) ;
#120 = ORIENTED_EDGE ( 'NONE', *, *, #111, .F. ) ;
#121 = PERSON_AND_ORGANIZATION ( #210, #14 ) ;
#122 = PERSON_AND_ORGANIZATION ( #210, #14 ) ;
#123 = AXIS2_PLACEMENT_3D ( 'NONE', #115, #28, #95 ) ;
#124 = ORIENTED_EDGE ( 'NONE', *, *, #194, .F. ) ;
#125 = AXIS2_PLACEMENT_3D ( 'NONE', #157, #4, #192 ) ;
#126 = CC_DESIGN_DATE_AND_TIME_ASSIGNMENT ( #119, #142, ( #58 ) ) ;
#127 = DIRECTION ( 'NONE',  ( 3.491481338843133355E-15, -1.224646799147353207E-16, 1.000000000000000000 ) ) ;
#128 = VERTEX_POINT ( 'NONE', #195 ) ;
#129 = FACE_OUTER_BOUND ( 'NONE', #106, .T. ) ;
#130 = ADVANCED_FACE ( 'NONE', ( #134 ), #93, .T. ) ;
#131 = FACE_OUTER_BOUND ( 'NONE', #207, .T. ) ;
#132 = CARTESIAN_POINT ( 'NONE',  ( 1.992998956651457214E-16, 0.09499999999999989009, 0.05708175880761880150 ) ) ;
#133 = FACE_BOUND ( 'NONE', #3, .T. ) ;
#134 = FACE_OUTER_BOUND ( 'NONE', #179, .T. ) ;
#135 = FACE_OUTER_BOUND ( 'NONE', #168, .T. ) ;
#136 = PERSON_AND_ORGANIZATION ( #210, #14 ) ;
#137 = ORIENTED_EDGE ( 'NONE', *, *, #167, .T. ) ;
#138 = AXIS2_PLACEMENT_3D ( 'NONE', #163, #127, #212 ) ;
#139 = PERSON_AND_ORGANIZATION ( #210, #14 ) ;
#140 = CARTESIAN_POINT ( 'NONE',  ( 3.491481338843133355E-15, 7.123858967643811492E-34, 1.000000000000000000 ) ) ;
#141 = EDGE_CURVE ( 'NONE', #66, #66, #23, .T. ) ;
#142 = DATE_TIME_ROLE ( 'creation_date' ) ;
#143 = ORIENTED_EDGE ( 'NONE', *, *, #141, .F. ) ;
#144 = ADVANCED_BREP_SHAPE_REPRESENTATION ( '36925', ( #55, #50, #62 ), #218 ) ;
#145 = APPROVAL ( #22, 'UNSPECIFIED' ) ;
#146 = DIRECTION ( 'NONE',  ( -3.491481338843133355E-15, 1.224646799147353207E-16, -1.000000000000000000 ) ) ;
#147 = SECURITY_CLASSIFICATION ( '', '', #74 ) ;
#148 = VERTEX_POINT ( 'NONE', #132 ) ;
#149 = CARTESIAN_POINT ( 'NONE',  ( 1.047444401652940007E-13, 2.999519565323660135E-33, 30.00000000000000000 ) ) ;
#150 = DIRECTION ( 'NONE',  ( -3.491481338843133355E-15, 1.224646799147353207E-16, -1.000000000000000000 ) ) ;
#151 = CC_DESIGN_DATE_AND_TIME_ASSIGNMENT ( #56, #188, ( #147 ) ) ;
#152 = CC_DESIGN_APPROVAL ( #145, ( #175 ) ) ;
#153 = AXIS2_PLACEMENT_3D ( 'NONE', #109, #47, #215 ) ;
#154 = APPROVAL_ROLE ( '' ) ;
#155 = DIRECTION ( 'NONE',  ( 1.000000000000000000, 0.0000000000000000000, 0.0000000000000000000 ) ) ;
#156 = ADVANCED_FACE ( 'NONE', ( #85, #68 ), #186, .T. ) ;
#157 = CARTESIAN_POINT ( 'NONE',  ( 1.992998956651456721E-16, -6.990499321345158695E-18, 0.05708175880761878762 ) ) ;
#158 = APPROVAL_PERSON_ORGANIZATION ( #70, #145, #191 ) ;
#159 = PERSON_AND_ORGANIZATION_ROLE ( 'classification_officer' ) ;
#160 = AXIS2_PLACEMENT_3D ( 'NONE', #140, #39, #90 ) ;
#161 = CC_DESIGN_PERSON_AND_ORGANIZATION_ASSIGNMENT ( #89, #105, ( #175 ) ) ;
#162 = LOCAL_TIME ( 15, 46, 42.00000000000000000, #49 ) ;
#163 = CARTESIAN_POINT ( 'NONE',  ( 3.491481338843133355E-15, 7.123858967643811492E-34, 1.000000000000000000 ) ) ;
#164 = CARTESIAN_POINT ( 'NONE',  ( 8.768787567690906991E-15, -3.075676649823917497E-16, 2.511480577065422715 ) ) ;
#165 = CARTESIAN_POINT ( 'NONE',  ( 1.047444401652940007E-13, 0.3999999999999963585, 30.00000000000000000 ) ) ;
#166 = CC_DESIGN_APPROVAL ( #32, ( #147 ) ) ;
#167 = EDGE_CURVE ( 'NONE', #31, #31, #18, .T. ) ;
#168 = EDGE_LOOP ( 'NONE', ( #9 ) ) ;
#169 = AXIS2_PLACEMENT_3D ( 'NONE', #213, #150, #10 ) ;
#170 = COORDINATED_UNIVERSAL_TIME_OFFSET ( 1, 0, .AHEAD. ) ;
#171 = EDGE_CURVE ( 'NONE', #181, #181, #57, .T. ) ;
#172 = PERSON_AND_ORGANIZATION_ROLE ( 'creator' ) ;
#173 = APPLICATION_CONTEXT ( 'configuration controlled 3d designs of mechanical parts and assemblies' ) ;
#174 = PERSON_AND_ORGANIZATION_ROLE ( 'design_owner' ) ;
#175 = PRODUCT_DEFINITION_FORMATION_WITH_SPECIFIED_SOURCE ( 'ANY', '', #176, .NOT_KNOWN. ) ;
#176 = PRODUCT ( '36925', '36925', '', ( #116 ) ) ;
#177 = APPROVAL_PERSON_ORGANIZATION ( #204, #32, #103 ) ;
#178 = CC_DESIGN_PERSON_AND_ORGANIZATION_ASSIGNMENT ( #122, #174, ( #176 ) ) ;
#179 = EDGE_LOOP ( 'NONE', ( #69 ) ) ;
#180 = LOCAL_TIME ( 15, 46, 42.00000000000000000, #19 ) ;
#181 = VERTEX_POINT ( 'NONE', #83 ) ;
#182 = DIRECTION ( 'NONE',  ( 3.491481338843133355E-15, -1.224646799147353207E-16, 1.000000000000000000 ) ) ;
#183 = EDGE_LOOP ( 'NONE', ( #143 ) ) ;
#184 = DIRECTION ( 'NONE',  ( 3.491481338843133355E-15, -1.224646799147353207E-16, 1.000000000000000000 ) ) ;
#185 = ADVANCED_FACE ( 'NONE', ( #26, #135 ), #42, .T. ) ;
#186 = CYLINDRICAL_SURFACE ( 'NONE', #41, 0.4999999999999982792 ) ;
#187 = ORIENTED_EDGE ( 'NONE', *, *, #167, .F. ) ;
#188 = DATE_TIME_ROLE ( 'classification_date' ) ;
#189 = APPROVAL_DATE_TIME ( #21, #145 ) ;
#190 = SHAPE_DEFINITION_REPRESENTATION ( #84, #144 ) ;
#191 = APPROVAL_ROLE ( '' ) ;
#192 = DIRECTION ( 'NONE',  ( 5.068236695755889494E-31, 1.000000000000000000, 1.426581805901981114E-16 ) ) ;
#193 = CIRCLE ( 'NONE', #153, 0.09500000000000007050 ) ;
#194 = EDGE_CURVE ( 'NONE', #128, #128, #46, .T. ) ;
#195 = CARTESIAN_POINT ( 'NONE',  ( 3.491481338843133355E-15, 0.09499999999999994560, 1.000000000000000000 ) ) ;
#196 = CARTESIAN_POINT ( 'NONE',  ( 1.043952920314096810E-13, 0.4999999999999963363, 29.89999999999999858 ) ) ;
#197 = CARTESIAN_POINT ( 'NONE',  ( 1.043952920314096810E-13, -3.661693929450586610E-15, 29.89999999999999858 ) ) ;
#198 = APPROVAL ( #206, 'UNSPECIFIED' ) ;
#199 = CIRCLE ( 'NONE', #125, 0.09499999999999989009 ) ;
#200 = DIRECTION ( 'NONE',  ( 0.0000000000000000000, 1.000000000000000000, 0.0000000000000000000 ) ) ;
#201 = CARTESIAN_POINT ( 'NONE',  ( 0.0000000000000000000, 0.0000000000000000000, 0.0000000000000000000 ) ) ;
#202 = CALENDAR_DATE ( 2021, 7, 10 ) ;
#203 = CLOSED_SHELL ( 'NONE', ( #130, #185, #94 ) ) ;
#204 = PERSON_AND_ORGANIZATION ( #210, #14 ) ;
#205 = DATE_AND_TIME ( #35, #180 ) ;
#206 = APPROVAL_STATUS ( 'not_yet_approved' ) ;
#207 = EDGE_LOOP ( 'NONE', ( #120 ) ) ;
#208 = EDGE_LOOP ( 'NONE', ( #71 ) ) ;
#209 = DESIGN_CONTEXT ( 'detailed design', #60, 'design' ) ;
#210 = PERSON ( 'UNSPECIFIED', 'UNSPECIFIED', 'UNSPECIFIED', ('UNSPECIFIED'), ('UNSPECIFIED'), ('UNSPECIFIED') ) ;
#211 = PRODUCT_RELATED_PRODUCT_CATEGORY ( 'detail', '', ( #176 ) ) ;
#212 = DIRECTION ( 'NONE',  ( -4.275831445896958607E-31, -1.000000000000000000, -1.224646799147353207E-16 ) ) ;
#213 = CARTESIAN_POINT ( 'NONE',  ( 3.491481338843133355E-15, -1.224646799147353207E-16, 1.000000000000000000 ) ) ;
#214 = AXIS2_PLACEMENT_3D ( 'NONE', #112, #98, #200 ) ;
#215 = DIRECTION ( 'NONE',  ( 0.0000000000000000000, 1.000000000000000000, 0.0000000000000000000 ) ) ;
#216 = VERTEX_POINT ( 'NONE', #101 ) ;
#217 = DIRECTION ( 'NONE',  ( 0.0000000000000000000, -1.000000000000000000, 0.0000000000000000000 ) ) ;
#218 =( GEOMETRIC_REPRESENTATION_CONTEXT ( 3 ) GLOBAL_UNCERTAINTY_ASSIGNED_CONTEXT ( ( #48 ) ) GLOBAL_UNIT_ASSIGNED_CONTEXT ( ( #27, #8, #16 ) ) REPRESENTATION_CONTEXT ( 'NONE', 'WORKASPACE' ) );
#219 = APPLICATION_PROTOCOL_DEFINITION ( 'international standard', 'config_control_design', 1994, #173 ) ;
#220 = APPROVAL_DATE_TIME ( #104, #198 ) ;
#221 = COORDINATED_UNIVERSAL_TIME_OFFSET ( 1, 0, .AHEAD. ) ;
#222 = PLANE ( 'NONE',  #87 ) ;
#223 = CLOSED_SHELL ( 'NONE', ( #79, #96, #156, #108, #52 ) ) ;
ENDSEC;
END-ISO-10303-21;
