ISO-10303-21;
HEADER;
FILE_DESCRIPTION (( 'STEP AP203' ),
    '1' );
FILE_NAME ('36921.step',
    '2021-10-07T13:46:41',
    ( '' ),
    ( '' ),
    'SwSTEP 2.0',
    'SolidWorks 2019',
    '' );
FILE_SCHEMA (( 'CONFIG_CONTROL_DESIGN' ));
ENDSEC;

DATA;
#1 = DIRECTION ( 'NONE',  ( 4.275831445896958607E-31, 1.000000000000000000, 1.224646799147352961E-16 ) ) ;
#2 = CALENDAR_DATE ( 2021, 7, 10 ) ;
#3 = CALENDAR_DATE ( 2021, 7, 10 ) ;
#4 = DATE_AND_TIME ( #3, #78 ) ;
#5 = EDGE_LOOP ( 'NONE', ( #108 ) ) ;
#6 = FACE_OUTER_BOUND ( 'NONE', #5, .T. ) ;
#7 = FACE_OUTER_BOUND ( 'NONE', #133, .T. ) ;
#8 = CARTESIAN_POINT ( 'NONE',  ( 0.0000000000000000000, 0.0000000000000000000, 0.0000000000000000000 ) ) ;
#9 = CARTESIAN_POINT ( 'NONE',  ( 1.573420228935360712E-16, -5.518815253693546257E-18, 0.04506454642706746866 ) ) ;
#10 = VERTEX_POINT ( 'NONE', #187 ) ;
#11 = AXIS2_PLACEMENT_3D ( 'NONE', #181, #148, #200 ) ;
#12 = CC_DESIGN_DATE_AND_TIME_ASSIGNMENT ( #160, #92, ( #170 ) ) ;
#13 = CARTESIAN_POINT ( 'NONE',  ( 1.573420228935360712E-16, -5.518815253693546257E-18, 0.04506454642706746866 ) ) ;
#14 = APPROVAL_STATUS ( 'not_yet_approved' ) ;
#15 = COORDINATED_UNIVERSAL_TIME_OFFSET ( 1, 0, .AHEAD. ) ;
#16 = EDGE_LOOP ( 'NONE', ( #112 ) ) ;
#17 = PERSON_AND_ORGANIZATION_ROLE ( 'design_supplier' ) ;
#18 = PRODUCT_DEFINITION ( 'UNKNOWN', '', #158, #91 ) ;
#19 = PRODUCT_DEFINITION_SHAPE ( 'NONE', 'NONE',  #18 ) ;
#20 = CONICAL_SURFACE ( 'NONE', #162, 0.07499999999999991396, 1.029744258676649649 ) ;
#21 = ORIENTED_EDGE ( 'NONE', *, *, #51, .F. ) ;
#22 = CARTESIAN_POINT ( 'NONE',  ( 3.491481338843133355E-15, -1.224646799147353207E-16, 1.000000000000000000 ) ) ;
#23 = CONICAL_SURFACE ( 'NONE', #69, 0.4999999999999966693, 0.2617993877991428575 ) ;
#24 = CARTESIAN_POINT ( 'NONE',  ( 9.029395282695736916E-15, -3.167085531338809834E-16, 2.586121593216801795 ) ) ;
#25 = DIRECTION ( 'NONE',  ( 3.491481338843133355E-15, -1.224646799147353207E-16, 1.000000000000000000 ) ) ;
#26 = ADVANCED_FACE ( 'NONE', ( #77, #7 ), #23, .T. ) ;
#27 = EDGE_LOOP ( 'NONE', ( #72 ) ) ;
#28 =( LENGTH_UNIT ( ) NAMED_UNIT ( * ) SI_UNIT ( .MILLI., .METRE. ) );
#29 = AXIS2_PLACEMENT_3D ( 'NONE', #79, #146, #115 ) ;
#30 = DIRECTION ( 'NONE',  ( -3.491481338843133355E-15, 1.224646799147353207E-16, -1.000000000000000000 ) ) ;
#31 =( NAMED_UNIT ( * ) SI_UNIT ( $, .STERADIAN. ) SOLID_ANGLE_UNIT ( ) );
#32 = AXIS2_PLACEMENT_3D ( 'NONE', #211, #95, #150 ) ;
#33 = EDGE_CURVE ( 'NONE', #190, #190, #209, .T. ) ;
#34 = SECURITY_CLASSIFICATION_LEVEL ( 'unclassified' ) ;
#35 = PERSON_AND_ORGANIZATION_ROLE ( 'classification_officer' ) ;
#36 = UNCERTAINTY_MEASURE_WITH_UNIT (LENGTH_MEASURE( 1.000000000000000082E-05 ), #28, 'distance_accuracy_value', 'NONE');
#37 = AXIS2_PLACEMENT_3D ( 'NONE', #67, #139, #203 ) ;
#38 = APPROVAL_DATE_TIME ( #4, #189 ) ;
#39 = APPLICATION_CONTEXT ( 'configuration controlled 3d designs of mechanical parts and assemblies' ) ;
#40 = EDGE_CURVE ( 'NONE', #156, #156, #155, .T. ) ;
#41 = ORGANIZATION ( 'UNSPECIFIED', 'UNSPECIFIED', '' ) ;
#42 = DIRECTION ( 'NONE',  ( 0.0000000000000000000, 1.000000000000000000, 0.0000000000000000000 ) ) ;
#43 = MANIFOLD_SOLID_BREP ( 'Corps-Déplacer/Copier1[2]', #204 ) ;
#44 = DIRECTION ( 'NONE',  ( -3.491481338843133355E-15, 1.224646799147353207E-16, -1.000000000000000000 ) ) ;
#45 = CYLINDRICAL_SURFACE ( 'NONE', #109, 0.4999999999999982792 ) ;
#46 = MANIFOLD_SOLID_BREP ( 'Corps-Déplacer/Copier1[1]', #90 ) ;
#47 = FACE_OUTER_BOUND ( 'NONE', #58, .T. ) ;
#48 = PERSON ( 'UNSPECIFIED', 'UNSPECIFIED', 'UNSPECIFIED', ('UNSPECIFIED'), ('UNSPECIFIED'), ('UNSPECIFIED') ) ;
#49 = APPROVAL_ROLE ( '' ) ;
#50 = APPLICATION_PROTOCOL_DEFINITION ( 'international standard', 'config_control_design', 1994, #39 ) ;
#51 = EDGE_CURVE ( 'NONE', #10, #10, #107, .T. ) ;
#52 =( GEOMETRIC_REPRESENTATION_CONTEXT ( 3 ) GLOBAL_UNCERTAINTY_ASSIGNED_CONTEXT ( ( #36 ) ) GLOBAL_UNIT_ASSIGNED_CONTEXT ( ( #28, #101, #31 ) ) REPRESENTATION_CONTEXT ( 'NONE', 'WORKASPACE' ) );
#53 = EDGE_LOOP ( 'NONE', ( #106 ) ) ;
#54 = EDGE_CURVE ( 'NONE', #202, #202, #114, .T. ) ;
#55 = EDGE_LOOP ( 'NONE', ( #141 ) ) ;
#56 = APPROVAL_PERSON_ORGANIZATION ( #140, #189, #125 ) ;
#57 = CALENDAR_DATE ( 2021, 7, 10 ) ;
#58 = EDGE_LOOP ( 'NONE', ( #216 ) ) ;
#59 = FACE_OUTER_BOUND ( 'NONE', #208, .T. ) ;
#60 = AXIS2_PLACEMENT_3D ( 'NONE', #61, #129, #80 ) ;
#61 = CARTESIAN_POINT ( 'NONE',  ( 1.047444401652940007E-13, 2.999519565323660135E-33, 30.00000000000000000 ) ) ;
#62 = DIRECTION ( 'NONE',  ( 0.0000000000000000000, 1.000000000000000000, 0.0000000000000000000 ) ) ;
#63 = ADVANCED_FACE ( 'NONE', ( #59, #47 ), #45, .T. ) ;
#64 = DIRECTION ( 'NONE',  ( -3.491481338843133355E-15, 1.224646799147353207E-16, -1.000000000000000000 ) ) ;
#65 = AXIS2_PLACEMENT_3D ( 'NONE', #9, #186, #134 ) ;
#66 = ORIENTED_EDGE ( 'NONE', *, *, #103, .T. ) ;
#67 = CARTESIAN_POINT ( 'NONE',  ( 0.0000000000000000000, 0.0000000000000000000, 0.0000000000000000000 ) ) ;
#68 = PERSON_AND_ORGANIZATION_ROLE ( 'design_owner' ) ;
#69 = AXIS2_PLACEMENT_3D ( 'NONE', #24, #25, #113 ) ;
#70 = VERTEX_POINT ( 'NONE', #138 ) ;
#71 = LOCAL_TIME ( 15, 46, 41.00000000000000000, #104 ) ;
#72 = ORIENTED_EDGE ( 'NONE', *, *, #54, .T. ) ;
#73 = PERSON_AND_ORGANIZATION ( #48, #41 ) ;
#74 = CIRCLE ( 'NONE', #217, 0.4999999999999966693 ) ;
#75 = ADVANCED_FACE ( 'NONE', ( #185 ), #110, .F. ) ;
#76 = ORIENTED_EDGE ( 'NONE', *, *, #103, .F. ) ;
#77 = FACE_BOUND ( 'NONE', #53, .T. ) ;
#78 = LOCAL_TIME ( 15, 46, 41.00000000000000000, #15 ) ;
#79 = CARTESIAN_POINT ( 'NONE',  ( 1.043952920314096810E-13, -3.661693929450586610E-15, 29.89999999999999858 ) ) ;
#80 = DIRECTION ( 'NONE',  ( 4.275831445896958607E-31, 1.000000000000000000, 1.224646799147353207E-16 ) ) ;
#81 = CARTESIAN_POINT ( 'NONE',  ( 9.029395282695736916E-15, -3.167085531338809834E-16, 2.586121593216801795 ) ) ;
#82 = APPROVAL ( #169, 'UNSPECIFIED' ) ;
#83 = CC_DESIGN_APPROVAL ( #82, ( #158 ) ) ;
#84 = DIRECTION ( 'NONE',  ( -3.209883240645396738E-31, -1.000000000000000000, -9.035018104045880555E-17 ) ) ;
#85 = PERSON_AND_ORGANIZATION ( #48, #41 ) ;
#86 = DATE_AND_TIME ( #100, #71 ) ;
#87 = CC_DESIGN_SECURITY_CLASSIFICATION ( #170, ( #158 ) ) ;
#88 = PRODUCT_RELATED_PRODUCT_CATEGORY ( 'detail', '', ( #180 ) ) ;
#89 = EDGE_LOOP ( 'NONE', ( #126 ) ) ;
#90 = CLOSED_SHELL ( 'NONE', ( #75, #26, #63, #111, #94 ) ) ;
#91 = DESIGN_CONTEXT ( 'detailed design', #39, 'design' ) ;
#92 = DATE_TIME_ROLE ( 'classification_date' ) ;
#93 = ORIENTED_EDGE ( 'NONE', *, *, #145, .F. ) ;
#94 = ADVANCED_FACE ( 'NONE', ( #98 ), #131, .F. ) ;
#95 = DIRECTION ( 'NONE',  ( -3.491481338843133355E-15, 1.224646799147353207E-16, -1.000000000000000000 ) ) ;
#96 = ORIENTED_EDGE ( 'NONE', *, *, #40, .T. ) ;
#97 = CIRCLE ( 'NONE', #65, 0.07499999999999991396 ) ;
#98 = FACE_OUTER_BOUND ( 'NONE', #215, .T. ) ;
#99 = DIRECTION ( 'NONE',  ( 3.491481338843133355E-15, -1.224646799147353207E-16, 1.000000000000000000 ) ) ;
#100 = CALENDAR_DATE ( 2021, 7, 10 ) ;
#101 =( NAMED_UNIT ( * ) PLANE_ANGLE_UNIT ( ) SI_UNIT ( $, .RADIAN. ) );
#102 = CARTESIAN_POINT ( 'NONE',  ( 0.0000000000000000000, 0.0000000000000000000, 0.0000000000000000000 ) ) ;
#103 = EDGE_CURVE ( 'NONE', #70, #70, #74, .T. ) ;
#104 = COORDINATED_UNIVERSAL_TIME_OFFSET ( 1, 0, .AHEAD. ) ;
#105 = CC_DESIGN_PERSON_AND_ORGANIZATION_ASSIGNMENT ( #73, #17, ( #158 ) ) ;
#106 = ORIENTED_EDGE ( 'NONE', *, *, #40, .F. ) ;
#107 = CIRCLE ( 'NONE', #163, 0.4000000000000000222 ) ;
#108 = ORIENTED_EDGE ( 'NONE', *, *, #33, .F. ) ;
#109 = AXIS2_PLACEMENT_3D ( 'NONE', #8, #165, #213 ) ;
#110 = PLANE ( 'NONE',  #11 ) ;
#111 = ADVANCED_FACE ( 'NONE', ( #6, #214 ), #193, .T. ) ;
#112 = ORIENTED_EDGE ( 'NONE', *, *, #54, .F. ) ;
#113 = DIRECTION ( 'NONE',  ( 0.0000000000000000000, -1.000000000000000000, 0.0000000000000000000 ) ) ;
#114 = CIRCLE ( 'NONE', #212, 0.07500000000000010825 ) ;
#115 = DIRECTION ( 'NONE',  ( 0.0000000000000000000, 1.000000000000000000, 0.0000000000000000000 ) ) ;
#116 = FACE_OUTER_BOUND ( 'NONE', #27, .T. ) ;
#117 = ADVANCED_FACE ( 'NONE', ( #132 ), #149, .T. ) ;
#118 = LOCAL_TIME ( 15, 46, 41.00000000000000000, #210 ) ;
#119 = CALENDAR_DATE ( 2021, 7, 10 ) ;
#120 = PERSON_AND_ORGANIZATION_ROLE ( 'creator' ) ;
#121 = CARTESIAN_POINT ( 'NONE',  ( 3.491481338843133355E-15, 0.07499999999999998335, 1.000000000000000000 ) ) ;
#122 = CC_DESIGN_APPROVAL ( #218, ( #18 ) ) ;
#123 = APPROVAL_DATE_TIME ( #188, #218 ) ;
#124 = CC_DESIGN_PERSON_AND_ORGANIZATION_ASSIGNMENT ( #153, #68, ( #180 ) ) ;
#125 = APPROVAL_ROLE ( '' ) ;
#126 = ORIENTED_EDGE ( 'NONE', *, *, #51, .T. ) ;
#127 = SHAPE_DEFINITION_REPRESENTATION ( #19, #171 ) ;
#128 = APPROVAL_STATUS ( 'not_yet_approved' ) ;
#129 = DIRECTION ( 'NONE',  ( -3.491481338843133355E-15, 1.224646799147353207E-16, -1.000000000000000000 ) ) ;
#130 = CC_DESIGN_PERSON_AND_ORGANIZATION_ASSIGNMENT ( #85, #120, ( #18 ) ) ;
#131 = PLANE ( 'NONE',  #60 ) ;
#132 = FACE_OUTER_BOUND ( 'NONE', #16, .T. ) ;
#133 = EDGE_LOOP ( 'NONE', ( #66 ) ) ;
#134 = DIRECTION ( 'NONE',  ( 3.209883240645396738E-31, 1.000000000000000000, 9.035018104045880555E-17 ) ) ;
#135 = COORDINATED_UNIVERSAL_TIME_OFFSET ( 1, 0, .AHEAD. ) ;
#136 = CC_DESIGN_PERSON_AND_ORGANIZATION_ASSIGNMENT ( #143, #35, ( #170 ) ) ;
#137 = APPROVAL_ROLE ( '' ) ;
#138 = CARTESIAN_POINT ( 'NONE',  ( 9.029395282695736916E-15, 0.4999999999999963363, 2.586121593216801795 ) ) ;
#139 = DIRECTION ( 'NONE',  ( 0.0000000000000000000, 0.0000000000000000000, 1.000000000000000000 ) ) ;
#140 = PERSON_AND_ORGANIZATION ( #48, #41 ) ;
#141 = ORIENTED_EDGE ( 'NONE', *, *, #145, .T. ) ;
#142 = CC_DESIGN_DATE_AND_TIME_ASSIGNMENT ( #86, #192, ( #18 ) ) ;
#143 = PERSON_AND_ORGANIZATION ( #48, #41 ) ;
#144 = AXIS2_PLACEMENT_3D ( 'NONE', #199, #99, #168 ) ;
#145 = EDGE_CURVE ( 'NONE', #219, #219, #97, .T. ) ;
#146 = DIRECTION ( 'NONE',  ( -3.491481338843133355E-15, 1.224646799147353207E-16, -1.000000000000000000 ) ) ;
#147 = DIRECTION ( 'NONE',  ( -3.491481338843133355E-15, 1.224646799147353207E-16, -1.000000000000000000 ) ) ;
#148 = DIRECTION ( 'NONE',  ( 3.491481338843133355E-15, -1.224646799147353207E-16, 1.000000000000000000 ) ) ;
#149 = PLANE ( 'NONE',  #144 ) ;
#150 = DIRECTION ( 'NONE',  ( 0.0000000000000000000, 1.000000000000000000, 0.0000000000000000000 ) ) ;
#151 = AXIS2_PLACEMENT_3D ( 'NONE', #198, #44, #62 ) ;
#152 = CARTESIAN_POINT ( 'NONE',  ( 1.043952920314096810E-13, 0.4999999999999963363, 29.89999999999999858 ) ) ;
#153 = PERSON_AND_ORGANIZATION ( #48, #41 ) ;
#154 = PERSON_AND_ORGANIZATION ( #48, #41 ) ;
#155 = CIRCLE ( 'NONE', #32, 0.07500000000000010825 ) ;
#156 = VERTEX_POINT ( 'NONE', #172 ) ;
#157 = DIRECTION ( 'NONE',  ( 3.491481338843133355E-15, -1.224646799147353207E-16, 1.000000000000000000 ) ) ;
#158 = PRODUCT_DEFINITION_FORMATION_WITH_SPECIFIED_SOURCE ( 'ANY', '', #180, .NOT_KNOWN. ) ;
#159 = EDGE_LOOP ( 'NONE', ( #93 ) ) ;
#160 = DATE_AND_TIME ( #2, #118 ) ;
#161 = PERSON_AND_ORGANIZATION_ROLE ( 'creator' ) ;
#162 = AXIS2_PLACEMENT_3D ( 'NONE', #13, #157, #84 ) ;
#163 = AXIS2_PLACEMENT_3D ( 'NONE', #183, #182, #166 ) ;
#164 = EDGE_LOOP ( 'NONE', ( #96 ) ) ;
#165 = DIRECTION ( 'NONE',  ( -3.491481338843133355E-15, 1.224646799147353207E-16, -1.000000000000000000 ) ) ;
#166 = DIRECTION ( 'NONE',  ( 0.0000000000000000000, 1.000000000000000000, 0.0000000000000000000 ) ) ;
#167 = DIRECTION ( 'NONE',  ( 0.0000000000000000000, 1.000000000000000000, 0.0000000000000000000 ) ) ;
#168 = DIRECTION ( 'NONE',  ( -4.275831445896958607E-31, -1.000000000000000000, -1.224646799147353207E-16 ) ) ;
#169 = APPROVAL_STATUS ( 'not_yet_approved' ) ;
#170 = SECURITY_CLASSIFICATION ( '', '', #34 ) ;
#171 = ADVANCED_BREP_SHAPE_REPRESENTATION ( '36921', ( #46, #43, #37 ), #52 ) ;
#172 = CARTESIAN_POINT ( 'NONE',  ( 3.491481338843133355E-15, 0.07499999999999998335, 1.000000000000000000 ) ) ;
#173 = CC_DESIGN_APPROVAL ( #189, ( #170 ) ) ;
#174 = APPLICATION_PROTOCOL_DEFINITION ( 'international standard', 'config_control_design', 1994, #222 ) ;
#175 = ADVANCED_FACE ( 'NONE', ( #201, #116 ), #197, .T. ) ;
#176 = APPROVAL_DATE_TIME ( #177, #82 ) ;
#177 = DATE_AND_TIME ( #57, #178 ) ;
#178 = LOCAL_TIME ( 15, 46, 41.00000000000000000, #194 ) ;
#179 = CC_DESIGN_PERSON_AND_ORGANIZATION_ASSIGNMENT ( #195, #161, ( #158 ) ) ;
#180 = PRODUCT ( '36921', '36921', '', ( #206 ) ) ;
#181 = CARTESIAN_POINT ( 'NONE',  ( 3.491481338843133355E-15, 5.624099184981955766E-34, 1.000000000000000000 ) ) ;
#182 = DIRECTION ( 'NONE',  ( -3.491481338843133355E-15, 1.224646799147353207E-16, -1.000000000000000000 ) ) ;
#183 = CARTESIAN_POINT ( 'NONE',  ( 1.047444401652940007E-13, -3.673940397442059178E-15, 30.00000000000000000 ) ) ;
#184 = APPROVAL_PERSON_ORGANIZATION ( #154, #82, #137 ) ;
#185 = FACE_OUTER_BOUND ( 'NONE', #164, .T. ) ;
#186 = DIRECTION ( 'NONE',  ( -3.491481338843133355E-15, 1.224646799147353207E-16, -1.000000000000000000 ) ) ;
#187 = CARTESIAN_POINT ( 'NONE',  ( 1.047444401652940007E-13, 0.3999999999999963585, 30.00000000000000000 ) ) ;
#188 = DATE_AND_TIME ( #119, #207 ) ;
#189 = APPROVAL ( #128, 'UNSPECIFIED' ) ;
#190 = VERTEX_POINT ( 'NONE', #152 ) ;
#191 = APPROVAL_PERSON_ORGANIZATION ( #220, #218, #49 ) ;
#192 = DATE_TIME_ROLE ( 'creation_date' ) ;
#193 = CONICAL_SURFACE ( 'NONE', #151, 0.4000000000000000222, 0.7853981633974512766 ) ;
#194 = COORDINATED_UNIVERSAL_TIME_OFFSET ( 1, 0, .AHEAD. ) ;
#195 = PERSON_AND_ORGANIZATION ( #48, #41 ) ;
#196 = AXIS2_PLACEMENT_3D ( 'NONE', #102, #30, #1 ) ;
#197 = CYLINDRICAL_SURFACE ( 'NONE', #196, 0.07500000000000001110 ) ;
#198 = CARTESIAN_POINT ( 'NONE',  ( 1.047444401652940007E-13, -3.673940397442059178E-15, 30.00000000000000000 ) ) ;
#199 = CARTESIAN_POINT ( 'NONE',  ( 3.491481338843133355E-15, 5.624099184981955766E-34, 1.000000000000000000 ) ) ;
#200 = DIRECTION ( 'NONE',  ( -4.275831445896958607E-31, -1.000000000000000000, -1.224646799147353207E-16 ) ) ;
#201 = FACE_OUTER_BOUND ( 'NONE', #159, .T. ) ;
#202 = VERTEX_POINT ( 'NONE', #121 ) ;
#203 = DIRECTION ( 'NONE',  ( 1.000000000000000000, 0.0000000000000000000, 0.0000000000000000000 ) ) ;
#204 = CLOSED_SHELL ( 'NONE', ( #205, #175, #117 ) ) ;
#205 = ADVANCED_FACE ( 'NONE', ( #223 ), #20, .T. ) ;
#206 = MECHANICAL_CONTEXT ( 'NONE', #222, 'mechanical' ) ;
#207 = LOCAL_TIME ( 15, 46, 41.00000000000000000, #135 ) ;
#208 = EDGE_LOOP ( 'NONE', ( #76 ) ) ;
#209 = CIRCLE ( 'NONE', #29, 0.5000000000000000000 ) ;
#210 = COORDINATED_UNIVERSAL_TIME_OFFSET ( 1, 0, .AHEAD. ) ;
#211 = CARTESIAN_POINT ( 'NONE',  ( 3.491481338843133355E-15, -1.224646799147353207E-16, 1.000000000000000000 ) ) ;
#212 = AXIS2_PLACEMENT_3D ( 'NONE', #22, #64, #42 ) ;
#213 = DIRECTION ( 'NONE',  ( 4.275831445896958607E-31, 1.000000000000000000, 1.224646799147353207E-16 ) ) ;
#214 = FACE_BOUND ( 'NONE', #89, .T. ) ;
#215 = EDGE_LOOP ( 'NONE', ( #21 ) ) ;
#216 = ORIENTED_EDGE ( 'NONE', *, *, #33, .T. ) ;
#217 = AXIS2_PLACEMENT_3D ( 'NONE', #81, #147, #167 ) ;
#218 = APPROVAL ( #14, 'UNSPECIFIED' ) ;
#219 = VERTEX_POINT ( 'NONE', #221 ) ;
#220 = PERSON_AND_ORGANIZATION ( #48, #41 ) ;
#221 = CARTESIAN_POINT ( 'NONE',  ( 1.573420228935360959E-16, 0.07499999999999991396, 0.04506454642706747560 ) ) ;
#222 = APPLICATION_CONTEXT ( 'configuration controlled 3d designs of mechanical parts and assemblies' ) ;
#223 = FACE_OUTER_BOUND ( 'NONE', #55, .T. ) ;
ENDSEC;
END-ISO-10303-21;
