ISO-10303-21;
HEADER;
FILE_DESCRIPTION (( 'STEP AP203' ),
    '1' );
FILE_NAME ('36914.step',
    '2021-09-02T07:28:16',
    ( '' ),
    ( '' ),
    'SwSTEP 2.0',
    'SolidWorks 2019',
    '' );
FILE_SCHEMA (( 'CONFIG_CONTROL_DESIGN' ));
ENDSEC;

DATA;
#1 = AXIS2_PLACEMENT_3D ( 'NONE', #68, #156, #243 ) ;
#2 = DATE_TIME_ROLE ( 'classification_date' ) ;
#3 = APPROVAL ( #144, 'UNSPECIFIED' ) ;
#4 = EDGE_LOOP ( 'NONE', ( #274, #161, #187, #96 ) ) ;
#5 = VERTEX_POINT ( 'NONE', #6 ) ;
#6 = CARTESIAN_POINT ( 'NONE',  ( 4.031615381703312281E-15, -1.999999999999995781, 1.154700538379261898 ) ) ;
#7 = AXIS2_PLACEMENT_3D ( 'NONE', #174, #104, #197 ) ;
#8 = EDGE_CURVE ( 'NONE', #29, #75, #133, .T. ) ;
#9 = ORIENTED_EDGE ( 'NONE', *, *, #158, .T. ) ;
#10 = DATE_AND_TIME ( #39, #112 ) ;
#11 = CARTESIAN_POINT ( 'NONE',  ( 8.884947425399077133E-14, -1.999999999999995781, 1.154700538379261898 ) ) ;
#12 = CARTESIAN_POINT ( 'NONE',  ( 0.0000000000000000000, 0.0000000000000000000, 0.0000000000000000000 ) ) ;
#13 = DIRECTION ( 'NONE',  ( 0.0000000000000000000, 1.000000000000000000, 0.0000000000000000000 ) ) ;
#14 = AXIS2_PLACEMENT_3D ( 'NONE', #105, #240, #285 ) ;
#15 = APPLICATION_PROTOCOL_DEFINITION ( 'international standard', 'config_control_design', 1994, #180 ) ;
#16 = CARTESIAN_POINT ( 'NONE',  ( 1.740962070982345820E-13, -1.600000000000007860, 50.00000000000000000 ) ) ;
#17 = DIRECTION ( 'NONE',  ( 0.0000000000000000000, 1.000000000000000000, 0.0000000000000000000 ) ) ;
#18 = EDGE_CURVE ( 'NONE', #114, #251, #71, .T. ) ;
#19 = DIRECTION ( 'NONE',  ( -3.851859888774480026E-31, -1.000000000000000000, -1.084202172485506776E-16 ) ) ;
#20 = DIRECTION ( 'NONE',  ( -3.491481338843133355E-15, 1.224646799147353207E-16, -1.000000000000000000 ) ) ;
#21 = AXIS2_PLACEMENT_3D ( 'NONE', #190, #121, #235 ) ;
#22 = CONICAL_SURFACE ( 'NONE', #76, 1.600000000000001865, 0.7853981633974512766 ) ;
#23 = APPROVAL_ROLE ( '' ) ;
#24 = AXIS2_PLACEMENT_3D ( 'NONE', #216, #120, #36 ) ;
#25 = VERTEX_POINT ( 'NONE', #198 ) ;
#26 = ORIENTED_EDGE ( 'NONE', *, *, #215, .T. ) ;
#27 = ORIENTED_EDGE ( 'NONE', *, *, #89, .T. ) ;
#28 = ADVANCED_FACE ( 'NONE', ( #85 ), #263, .T. ) ;
#29 = VERTEX_POINT ( 'NONE', #41 ) ;
#30 = COORDINATED_UNIVERSAL_TIME_OFFSET ( 1, 0, .AHEAD. ) ;
#31 = DIRECTION ( 'NONE',  ( 1.745740669421581074E-15, -0.8660254037844362651, 0.5000000000000041078 ) ) ;
#32 = VECTOR ( 'NONE', #31, 1000.000000000000114 ) ;
#33 = COORDINATED_UNIVERSAL_TIME_OFFSET ( 1, 0, .AHEAD. ) ;
#34 = DIRECTION ( 'NONE',  ( 0.0000000000000000000, 1.000000000000000000, 0.0000000000000000000 ) ) ;
#35 = ADVANCED_BREP_SHAPE_REPRESENTATION ( '36914', ( #54, #44, #99 ), #67 ) ;
#36 = DIRECTION ( 'NONE',  ( 0.0000000000000000000, 1.000000000000000000, 0.0000000000000000000 ) ) ;
#37 = PLANE ( 'NONE',  #139 ) ;
#38 = ADVANCED_FACE ( 'NONE', ( #175 ), #22, .T. ) ;
#39 = CALENDAR_DATE ( 2021, 2, 9 ) ;
#40 = DIRECTION ( 'NONE',  ( -3.491481338843133355E-15, 1.224646799147353207E-16, -1.000000000000000000 ) ) ;
#41 = CARTESIAN_POINT ( 'NONE',  ( 4.031615381703313858E-15, 1.999999999999995781, 1.154700538379262342 ) ) ;
#42 = DIRECTION ( 'NONE',  ( -3.491481338843133355E-15, 1.224646799147353207E-16, -1.000000000000000000 ) ) ;
#43 = CC_DESIGN_APPROVAL ( #3, ( #245 ) ) ;
#44 = MANIFOLD_SOLID_BREP ( 'Corps-Déplacer/Copier1[2]', #277 ) ;
#45 = COORDINATED_UNIVERSAL_TIME_OFFSET ( 1, 0, .AHEAD. ) ;
#46 = APPROVAL ( #83, 'UNSPECIFIED' ) ;
#47 = DIRECTION ( 'NONE',  ( -2.468850131082257455E-15, 0.7071067811865497932, -0.7071067811865453523 ) ) ;
#48 = CALENDAR_DATE ( 2021, 2, 9 ) ;
#49 = AXIS2_PLACEMENT_3D ( 'NONE', #106, #40, #86 ) ;
#50 = EDGE_LOOP ( 'NONE', ( #115, #9, #137, #94 ) ) ;
#51 = EDGE_LOOP ( 'NONE', ( #134, #185, #229 ) ) ;
#52 = VECTOR ( 'NONE', #47, 1000.000000000000114 ) ;
#53 = ORIENTED_EDGE ( 'NONE', *, *, #81, .T. ) ;
#54 = MANIFOLD_SOLID_BREP ( 'Corps-Déplacer/Copier1[1]', #264 ) ;
#55 = EDGE_LOOP ( 'NONE', ( #140, #77 ) ) ;
#56 = CC_DESIGN_PERSON_AND_ORGANIZATION_ASSIGNMENT ( #247, #248, ( #130 ) ) ;
#57 = PERSON_AND_ORGANIZATION ( #149, #266 ) ;
#58 = CARTESIAN_POINT ( 'NONE',  ( 1.745740669421566678E-13, 1.599999999999995648, 50.00000000000000000 ) ) ;
#59 = PERSON_AND_ORGANIZATION ( #149, #266 ) ;
#60 = CARTESIAN_POINT ( 'NONE',  ( 0.0000000000000000000, 0.0000000000000000000, 0.0000000000000000000 ) ) ;
#61 = AXIS2_PLACEMENT_3D ( 'NONE', #200, #42, #287 ) ;
#62 = ADVANCED_FACE ( 'NONE', ( #65 ), #188, .T. ) ;
#63 =( LENGTH_UNIT ( ) NAMED_UNIT ( * ) SI_UNIT ( .MILLI., .METRE. ) );
#64 = CARTESIAN_POINT ( 'NONE',  ( 8.884947425399058200E-14, -2.000000000000007994, 49.60000000000000853 ) ) ;
#65 = FACE_OUTER_BOUND ( 'NONE', #204, .T. ) ;
#66 = DIRECTION ( 'NONE',  ( -3.491481338843133355E-15, 1.224646799147353207E-16, -1.000000000000000000 ) ) ;
#67 =( GEOMETRIC_REPRESENTATION_CONTEXT ( 3 ) GLOBAL_UNCERTAINTY_ASSIGNED_CONTEXT ( ( #255 ) ) GLOBAL_UNIT_ASSIGNED_CONTEXT ( ( #63, #147, #236 ) ) REPRESENTATION_CONTEXT ( 'NONE', 'WORKASPACE' ) );
#68 = CARTESIAN_POINT ( 'NONE',  ( 4.031615381703313069E-15, -1.251928832280980486E-16, 1.154700538379262120 ) ) ;
#69 = APPROVAL_PERSON_ORGANIZATION ( #270, #191, #23 ) ;
#70 = ADVANCED_FACE ( 'NONE', ( #146 ), #238, .T. ) ;
#71 = LINE ( 'NONE', #249, #52 ) ;
#72 = DATE_AND_TIME ( #48, #179 ) ;
#73 = DIRECTION ( 'NONE',  ( -3.491481338843133355E-15, 1.224646799147353207E-16, -1.000000000000000000 ) ) ;
#74 = AXIS2_PLACEMENT_3D ( 'NONE', #84, #151, #262 ) ;
#75 = VERTEX_POINT ( 'NONE', #11 ) ;
#76 = AXIS2_PLACEMENT_3D ( 'NONE', #127, #220, #17 ) ;
#77 = ORIENTED_EDGE ( 'NONE', *, *, #202, .T. ) ;
#78 = CARTESIAN_POINT ( 'NONE',  ( 1.731774744066194397E-13, -6.074248123770872657E-15, 49.60000000000000853 ) ) ;
#79 = PERSON_AND_ORGANIZATION ( #149, #266 ) ;
#80 = DIRECTION ( 'NONE',  ( -2.382254525458708792E-15, -0.7071067811865495711, -0.7071067811865455743 ) ) ;
#81 = EDGE_CURVE ( 'NONE', #251, #163, #273, .T. ) ;
#82 = PERSON_AND_ORGANIZATION ( #149, #266 ) ;
#83 = APPROVAL_STATUS ( 'not_yet_approved' ) ;
#84 = CARTESIAN_POINT ( 'NONE',  ( 4.031615381703313069E-15, -1.414100318299889116E-16, 1.154700538379262120 ) ) ;
#85 = FACE_OUTER_BOUND ( 'NONE', #4, .T. ) ;
#86 = DIRECTION ( 'NONE',  ( 3.851859888774480026E-31, 1.000000000000000000, 1.084202172485506776E-16 ) ) ;
#87 = FACE_OUTER_BOUND ( 'NONE', #55, .T. ) ;
#88 = CIRCLE ( 'NONE', #74, 1.999999999999995781 ) ;
#89 = EDGE_CURVE ( 'NONE', #25, #5, #281, .T. ) ;
#90 = EDGE_CURVE ( 'NONE', #163, #75, #167, .T. ) ;
#91 = APPROVAL_DATE_TIME ( #223, #191 ) ;
#92 = DIRECTION ( 'NONE',  ( 3.851859888774480026E-31, 1.000000000000000000, 1.084202172485506776E-16 ) ) ;
#93 = ORIENTED_EDGE ( 'NONE', *, *, #215, .F. ) ;
#94 = ORIENTED_EDGE ( 'NONE', *, *, #275, .F. ) ;
#95 = VECTOR ( 'NONE', #211, 1000.000000000000000 ) ;
#96 = ORIENTED_EDGE ( 'NONE', *, *, #202, .F. ) ;
#97 = AXIS2_PLACEMENT_3D ( 'NONE', #153, #279, #34 ) ;
#98 = CC_DESIGN_PERSON_AND_ORGANIZATION_ASSIGNMENT ( #194, #283, ( #245 ) ) ;
#99 = AXIS2_PLACEMENT_3D ( 'NONE', #12, #231, #166 ) ;
#100 = DIRECTION ( 'NONE',  ( -3.491481338843133355E-15, 1.224646799147353207E-16, -1.000000000000000000 ) ) ;
#101 = DIRECTION ( 'NONE',  ( -3.491481338843133355E-15, 1.224646799147353207E-16, -1.000000000000000000 ) ) ;
#102 = APPROVAL_DATE_TIME ( #214, #3 ) ;
#103 = PERSON_AND_ORGANIZATION_ROLE ( 'creator' ) ;
#104 = DIRECTION ( 'NONE',  ( -3.491481338843133355E-15, 1.224646799147353207E-16, -1.000000000000000000 ) ) ;
#105 = CARTESIAN_POINT ( 'NONE',  ( 0.0000000000000000000, 0.0000000000000000000, 0.0000000000000000000 ) ) ;
#106 = CARTESIAN_POINT ( 'NONE',  ( 4.031615381703313069E-15, -1.414100318299889116E-16, 1.154700538379262120 ) ) ;
#107 = PRODUCT_DEFINITION_SHAPE ( 'NONE', 'NONE',  #210 ) ;
#108 = CC_DESIGN_PERSON_AND_ORGANIZATION_ASSIGNMENT ( #57, #209, ( #242 ) ) ;
#109 = DIRECTION ( 'NONE',  ( 1.851798193294072678E-15, 0.8660254037844361541, 0.5000000000000044409 ) ) ;
#110 = AXIS2_PLACEMENT_3D ( 'NONE', #265, #66, #148 ) ;
#111 = EDGE_CURVE ( 'NONE', #251, #29, #232, .T. ) ;
#112 = LOCAL_TIME ( 9, 28, 16.00000000000000000, #192 ) ;
#113 = ORIENTED_EDGE ( 'NONE', *, *, #152, .F. ) ;
#114 = VERTEX_POINT ( 'NONE', #58 ) ;
#115 = ORIENTED_EDGE ( 'NONE', *, *, #117, .F. ) ;
#116 = EDGE_LOOP ( 'NONE', ( #93, #253 ) ) ;
#117 = EDGE_CURVE ( 'NONE', #164, #163, #143, .T. ) ;
#118 = APPLICATION_PROTOCOL_DEFINITION ( 'international standard', 'config_control_design', 1994, #165 ) ;
#119 = FACE_OUTER_BOUND ( 'NONE', #208, .T. ) ;
#120 = DIRECTION ( 'NONE',  ( -3.491481338843133355E-15, 1.224646799147353207E-16, -1.000000000000000000 ) ) ;
#121 = DIRECTION ( 'NONE',  ( 3.491481338843133355E-15, -1.224646799147353207E-16, 1.000000000000000000 ) ) ;
#122 = CALENDAR_DATE ( 2021, 2, 9 ) ;
#123 = CARTESIAN_POINT ( 'NONE',  ( 2.449293598294696554E-16, -1.999999999999998668, -2.449293598294712824E-16 ) ) ;
#124 = APPROVAL_DATE_TIME ( #10, #46 ) ;
#125 = CARTESIAN_POINT ( 'NONE',  ( 4.031615381703313069E-15, -1.251928832280980486E-16, 1.154700538379262120 ) ) ;
#126 = FACE_OUTER_BOUND ( 'NONE', #226, .T. ) ;
#127 = CARTESIAN_POINT ( 'NONE',  ( 1.745740669421566678E-13, -6.123233995736766085E-15, 50.00000000000000000 ) ) ;
#128 = CC_DESIGN_PERSON_AND_ORGANIZATION_ASSIGNMENT ( #82, #170, ( #245 ) ) ;
#129 = DIRECTION ( 'NONE',  ( 4.275831445896957731E-31, 1.000000000000000000, 1.224646799147353207E-16 ) ) ;
#130 = SECURITY_CLASSIFICATION ( '', '', #203 ) ;
#131 = CIRCLE ( 'NONE', #7, 1.600000000000001865 ) ;
#132 = SHAPE_DEFINITION_REPRESENTATION ( #107, #35 ) ;
#133 = CIRCLE ( 'NONE', #150, 1.999999999999995781 ) ;
#134 = ORIENTED_EDGE ( 'NONE', *, *, #89, .F. ) ;
#135 = COORDINATED_UNIVERSAL_TIME_OFFSET ( 1, 0, .AHEAD. ) ;
#136 = PRODUCT_RELATED_PRODUCT_CATEGORY ( 'detail', '', ( #242 ) ) ;
#137 = ORIENTED_EDGE ( 'NONE', *, *, #18, .T. ) ;
#138 = VERTEX_POINT ( 'NONE', #169 ) ;
#139 = AXIS2_PLACEMENT_3D ( 'NONE', #125, #261, #196 ) ;
#140 = ORIENTED_EDGE ( 'NONE', *, *, #8, .T. ) ;
#141 = LOCAL_TIME ( 9, 28, 16.00000000000000000, #30 ) ;
#142 = ADVANCED_FACE ( 'NONE', ( #119 ), #259, .T. ) ;
#143 = LINE ( 'NONE', #193, #184 ) ;
#144 = APPROVAL_STATUS ( 'not_yet_approved' ) ;
#145 = VECTOR ( 'NONE', #101, 1000.000000000000000 ) ;
#146 = FACE_OUTER_BOUND ( 'NONE', #51, .T. ) ;
#147 =( NAMED_UNIT ( * ) PLANE_ANGLE_UNIT ( ) SI_UNIT ( $, .RADIAN. ) );
#148 = DIRECTION ( 'NONE',  ( 3.851859888774480026E-31, 1.000000000000000000, 1.084202172485506776E-16 ) ) ;
#149 = PERSON ( 'UNSPECIFIED', 'UNSPECIFIED', 'UNSPECIFIED', ('UNSPECIFIED'), ('UNSPECIFIED'), ('UNSPECIFIED') ) ;
#150 = AXIS2_PLACEMENT_3D ( 'NONE', #272, #73, #92 ) ;
#151 = DIRECTION ( 'NONE',  ( -3.491481338843133355E-15, 1.224646799147353207E-16, -1.000000000000000000 ) ) ;
#152 = EDGE_CURVE ( 'NONE', #25, #138, #267, .T. ) ;
#153 = CARTESIAN_POINT ( 'NONE',  ( 1.745740669421566678E-13, -6.123233995736766085E-15, 50.00000000000000000 ) ) ;
#154 = CIRCLE ( 'NONE', #24, 2.000000000000001776 ) ;
#155 = CARTESIAN_POINT ( 'NONE',  ( 1.745740669421566678E-13, 1.199807826129478286E-32, 50.00000000000000000 ) ) ;
#156 = DIRECTION ( 'NONE',  ( 3.491481338843133355E-15, -1.224646799147353207E-16, 1.000000000000000000 ) ) ;
#157 = APPROVAL_PERSON_ORGANIZATION ( #79, #3, #168 ) ;
#158 = EDGE_CURVE ( 'NONE', #164, #114, #260, .T. ) ;
#159 = ORIENTED_EDGE ( 'NONE', *, *, #172, .F. ) ;
#160 = CIRCLE ( 'NONE', #110, 1.999999999999995781 ) ;
#161 = ORIENTED_EDGE ( 'NONE', *, *, #275, .T. ) ;
#162 = ADVANCED_FACE ( 'NONE', ( #87 ), #221, .F. ) ;
#163 = VERTEX_POINT ( 'NONE', #64 ) ;
#164 = VERTEX_POINT ( 'NONE', #16 ) ;
#165 = APPLICATION_CONTEXT ( 'configuration controlled 3d designs of mechanical parts and assemblies' ) ;
#166 = DIRECTION ( 'NONE',  ( 1.000000000000000000, 0.0000000000000000000, 0.0000000000000000000 ) ) ;
#167 = LINE ( 'NONE', #123, #95 ) ;
#168 = APPROVAL_ROLE ( '' ) ;
#169 = CARTESIAN_POINT ( 'NONE',  ( 4.276544741532784155E-15, 1.999999999999995781, 1.154700538379262342 ) ) ;
#170 = PERSON_AND_ORGANIZATION_ROLE ( 'design_supplier' ) ;
#171 = VECTOR ( 'NONE', #109, 1000.000000000000227 ) ;
#172 = EDGE_CURVE ( 'NONE', #114, #164, #131, .T. ) ;
#173 = DATE_AND_TIME ( #189, #141 ) ;
#174 = CARTESIAN_POINT ( 'NONE',  ( 1.745740669421566678E-13, -6.123233995736766085E-15, 50.00000000000000000 ) ) ;
#175 = FACE_OUTER_BOUND ( 'NONE', #50, .T. ) ;
#176 = PLANE ( 'NONE',  #250 ) ;
#177 = CIRCLE ( 'NONE', #49, 1.999999999999995781 ) ;
#178 = CARTESIAN_POINT ( 'NONE',  ( 4.276544741532784155E-15, 1.999999999999995781, 1.154700538379262342 ) ) ;
#179 = LOCAL_TIME ( 9, 28, 16.00000000000000000, #45 ) ;
#180 = APPLICATION_CONTEXT ( 'configuration controlled 3d designs of mechanical parts and assemblies' ) ;
#181 = CC_DESIGN_DATE_AND_TIME_ASSIGNMENT ( #173, #280, ( #210 ) ) ;
#182 = ORIENTED_EDGE ( 'NONE', *, *, #111, .F. ) ;
#183 = ORIENTED_EDGE ( 'NONE', *, *, #81, .F. ) ;
#184 = VECTOR ( 'NONE', #80, 1000.000000000000114 ) ;
#185 = ORIENTED_EDGE ( 'NONE', *, *, #152, .T. ) ;
#186 = DESIGN_CONTEXT ( 'detailed design', #180, 'design' ) ;
#187 = ORIENTED_EDGE ( 'NONE', *, *, #111, .T. ) ;
#188 = CONICAL_SURFACE ( 'NONE', #97, 1.600000000000001865, 0.7853981633974512766 ) ;
#189 = CALENDAR_DATE ( 2021, 2, 9 ) ;
#190 = CARTESIAN_POINT ( 'NONE',  ( 4.031615381703313069E-15, -1.414100318299889116E-16, 1.154700538379262120 ) ) ;
#191 = APPROVAL ( #246, 'UNSPECIFIED' ) ;
#192 = COORDINATED_UNIVERSAL_TIME_OFFSET ( 1, 0, .AHEAD. ) ;
#193 = CARTESIAN_POINT ( 'NONE',  ( 1.747700104300202289E-13, -1.600000000000007860, 50.00000000000000000 ) ) ;
#194 = PERSON_AND_ORGANIZATION ( #149, #266 ) ;
#195 = ADVANCED_FACE ( 'NONE', ( #126 ), #212, .T. ) ;
#196 = DIRECTION ( 'NONE',  ( -4.275831445896958607E-31, -1.000000000000000000, -1.224646799147353207E-16 ) ) ;
#197 = DIRECTION ( 'NONE',  ( 0.0000000000000000000, 1.000000000000000000, 0.0000000000000000000 ) ) ;
#198 = CARTESIAN_POINT ( 'NONE',  ( 0.0000000000000000000, 0.0000000000000000000, 0.0000000000000000000 ) ) ;
#199 = DIRECTION ( 'NONE',  ( 4.275831445896958607E-31, 1.000000000000000000, 1.224646799147353207E-16 ) ) ;
#200 = CARTESIAN_POINT ( 'NONE',  ( 1.745740669421566678E-13, -6.123233995736766085E-15, 50.00000000000000000 ) ) ;
#201 = AXIS2_PLACEMENT_3D ( 'NONE', #219, #284, #19 ) ;
#202 = EDGE_CURVE ( 'NONE', #75, #29, #177, .T. ) ;
#203 = SECURITY_CLASSIFICATION_LEVEL ( 'unclassified' ) ;
#204 = EDGE_LOOP ( 'NONE', ( #206, #271, #183, #276 ) ) ;
#205 = LOCAL_TIME ( 9, 28, 16.00000000000000000, #33 ) ;
#206 = ORIENTED_EDGE ( 'NONE', *, *, #172, .T. ) ;
#207 = ORIENTED_EDGE ( 'NONE', *, *, #158, .F. ) ;
#208 = EDGE_LOOP ( 'NONE', ( #53, #228, #230, #182 ) ) ;
#209 = PERSON_AND_ORGANIZATION_ROLE ( 'design_owner' ) ;
#210 = PRODUCT_DEFINITION ( 'UNKNOWN', '', #245, #186 ) ;
#211 = DIRECTION ( 'NONE',  ( -3.491481338843133355E-15, 1.224646799147353207E-16, -1.000000000000000000 ) ) ;
#212 = CONICAL_SURFACE ( 'NONE', #201, 1.999999999999995781, 1.047197551196592746 ) ;
#213 = CARTESIAN_POINT ( 'NONE',  ( 4.031615381703312281E-15, -1.999999999999995781, 1.154700538379261898 ) ) ;
#214 = DATE_AND_TIME ( #122, #205 ) ;
#215 = EDGE_CURVE ( 'NONE', #5, #138, #88, .T. ) ;
#216 = CARTESIAN_POINT ( 'NONE',  ( 1.731774744066194397E-13, -6.074248123770872657E-15, 49.60000000000000853 ) ) ;
#217 = CC_DESIGN_SECURITY_CLASSIFICATION ( #130, ( #245 ) ) ;
#218 = DIRECTION ( 'NONE',  ( -3.491481338843133355E-15, 1.224646799147353207E-16, -1.000000000000000000 ) ) ;
#219 = CARTESIAN_POINT ( 'NONE',  ( 4.031615381703313069E-15, -1.414100318299889116E-16, 1.154700538379262120 ) ) ;
#220 = DIRECTION ( 'NONE',  ( -3.491481338843133355E-15, 1.224646799147353207E-16, -1.000000000000000000 ) ) ;
#221 = PLANE ( 'NONE',  #1 ) ;
#222 = CC_DESIGN_DATE_AND_TIME_ASSIGNMENT ( #72, #2, ( #130 ) ) ;
#223 = DATE_AND_TIME ( #227, #282 ) ;
#224 = AXIS2_PLACEMENT_3D ( 'NONE', #60, #20, #129 ) ;
#225 = ADVANCED_FACE ( 'NONE', ( #239 ), #176, .F. ) ;
#226 = EDGE_LOOP ( 'NONE', ( #113, #27, #26 ) ) ;
#227 = CALENDAR_DATE ( 2021, 2, 9 ) ;
#228 = ORIENTED_EDGE ( 'NONE', *, *, #90, .T. ) ;
#229 = ORIENTED_EDGE ( 'NONE', *, *, #254, .T. ) ;
#230 = ORIENTED_EDGE ( 'NONE', *, *, #8, .F. ) ;
#231 = DIRECTION ( 'NONE',  ( 0.0000000000000000000, 0.0000000000000000000, 1.000000000000000000 ) ) ;
#232 = LINE ( 'NONE', #257, #145 ) ;
#233 = AXIS2_PLACEMENT_3D ( 'NONE', #78, #100, #13 ) ;
#234 = APPROVAL_ROLE ( '' ) ;
#235 = DIRECTION ( 'NONE',  ( -3.851859888774480026E-31, -1.000000000000000000, -1.084202172485506776E-16 ) ) ;
#236 =( NAMED_UNIT ( * ) SI_UNIT ( $, .STERADIAN. ) SOLID_ANGLE_UNIT ( ) );
#237 = FACE_OUTER_BOUND ( 'NONE', #116, .T. ) ;
#238 = CONICAL_SURFACE ( 'NONE', #21, 1.999999999999995781, 1.047197551196592746 ) ;
#239 = FACE_OUTER_BOUND ( 'NONE', #252, .T. ) ;
#240 = DIRECTION ( 'NONE',  ( -3.491481338843133355E-15, 1.224646799147353207E-16, -1.000000000000000000 ) ) ;
#241 = APPROVAL_PERSON_ORGANIZATION ( #258, #46, #234 ) ;
#242 = PRODUCT ( '36914', '36914', '', ( #256 ) ) ;
#243 = DIRECTION ( 'NONE',  ( -4.275831445896958607E-31, -1.000000000000000000, -1.224646799147353207E-16 ) ) ;
#244 = CC_DESIGN_PERSON_AND_ORGANIZATION_ASSIGNMENT ( #59, #103, ( #210 ) ) ;
#245 = PRODUCT_DEFINITION_FORMATION_WITH_SPECIFIED_SOURCE ( 'ANY', '', #242, .NOT_KNOWN. ) ;
#246 = APPROVAL_STATUS ( 'not_yet_approved' ) ;
#247 = PERSON_AND_ORGANIZATION ( #149, #266 ) ;
#248 = PERSON_AND_ORGANIZATION_ROLE ( 'classification_officer' ) ;
#249 = CARTESIAN_POINT ( 'NONE',  ( 1.745740669421566678E-13, 1.599999999999995648, 50.00000000000000000 ) ) ;
#250 = AXIS2_PLACEMENT_3D ( 'NONE', #155, #218, #199 ) ;
#251 = VERTEX_POINT ( 'NONE', #286 ) ;
#252 = EDGE_LOOP ( 'NONE', ( #159, #207 ) ) ;
#253 = ORIENTED_EDGE ( 'NONE', *, *, #254, .F. ) ;
#254 = EDGE_CURVE ( 'NONE', #138, #5, #160, .T. ) ;
#255 = UNCERTAINTY_MEASURE_WITH_UNIT (LENGTH_MEASURE( 1.000000000000000082E-05 ), #63, 'distance_accuracy_value', 'NONE');
#256 = MECHANICAL_CONTEXT ( 'NONE', #165, 'mechanical' ) ;
#257 = CARTESIAN_POINT ( 'NONE',  ( 8.551662891793910207E-31, 1.999999999999998668, 2.449293598294704935E-16 ) ) ;
#258 = PERSON_AND_ORGANIZATION ( #149, #266 ) ;
#259 = CYLINDRICAL_SURFACE ( 'NONE', #224, 1.999999999999998668 ) ;
#260 = CIRCLE ( 'NONE', #61, 1.600000000000001865 ) ;
#261 = DIRECTION ( 'NONE',  ( 3.491481338843133355E-15, -1.224646799147353207E-16, 1.000000000000000000 ) ) ;
#262 = DIRECTION ( 'NONE',  ( 3.851859888774480026E-31, 1.000000000000000000, 1.084202172485506776E-16 ) ) ;
#263 = CYLINDRICAL_SURFACE ( 'NONE', #14, 1.999999999999998668 ) ;
#264 = CLOSED_SHELL ( 'NONE', ( #62, #142, #162, #28, #38, #225 ) ) ;
#265 = CARTESIAN_POINT ( 'NONE',  ( 4.031615381703313069E-15, -1.414100318299889116E-16, 1.154700538379262120 ) ) ;
#266 = ORGANIZATION ( 'UNSPECIFIED', 'UNSPECIFIED', '' ) ;
#267 = LINE ( 'NONE', #178, #171 ) ;
#268 = ADVANCED_FACE ( 'NONE', ( #237 ), #37, .T. ) ;
#269 = CC_DESIGN_APPROVAL ( #191, ( #130 ) ) ;
#270 = PERSON_AND_ORGANIZATION ( #149, #266 ) ;
#271 = ORIENTED_EDGE ( 'NONE', *, *, #117, .T. ) ;
#272 = CARTESIAN_POINT ( 'NONE',  ( 4.031615381703313069E-15, -1.414100318299889116E-16, 1.154700538379262120 ) ) ;
#273 = CIRCLE ( 'NONE', #233, 2.000000000000001776 ) ;
#274 = ORIENTED_EDGE ( 'NONE', *, *, #90, .F. ) ;
#275 = EDGE_CURVE ( 'NONE', #163, #251, #154, .T. ) ;
#276 = ORIENTED_EDGE ( 'NONE', *, *, #18, .F. ) ;
#277 = CLOSED_SHELL ( 'NONE', ( #70, #195, #268 ) ) ;
#278 = CC_DESIGN_APPROVAL ( #46, ( #210 ) ) ;
#279 = DIRECTION ( 'NONE',  ( -3.491481338843133355E-15, 1.224646799147353207E-16, -1.000000000000000000 ) ) ;
#280 = DATE_TIME_ROLE ( 'creation_date' ) ;
#281 = LINE ( 'NONE', #213, #32 ) ;
#282 = LOCAL_TIME ( 9, 28, 16.00000000000000000, #135 ) ;
#283 = PERSON_AND_ORGANIZATION_ROLE ( 'creator' ) ;
#284 = DIRECTION ( 'NONE',  ( 3.491481338843133355E-15, -1.224646799147353207E-16, 1.000000000000000000 ) ) ;
#285 = DIRECTION ( 'NONE',  ( 4.275831445896957731E-31, 1.000000000000000000, 1.224646799147353207E-16 ) ) ;
#286 = CARTESIAN_POINT ( 'NONE',  ( 1.731774744066194397E-13, 1.999999999999995781, 49.60000000000000853 ) ) ;
#287 = DIRECTION ( 'NONE',  ( 0.0000000000000000000, 1.000000000000000000, 0.0000000000000000000 ) ) ;
ENDSEC;
END-ISO-10303-21;
