ISO-10303-21;
HEADER;
FILE_DESCRIPTION (( 'STEP AP203' ),
    '1' );
FILE_NAME ('36911.step',
    '2021-09-21T07:37:55',
    ( '' ),
    ( '' ),
    'SwSTEP 2.0',
    'SolidWorks 2019',
    '' );
FILE_SCHEMA (( 'CONFIG_CONTROL_DESIGN' ));
ENDSEC;

DATA;
#1 = ORIENTED_EDGE ( 'NONE', *, *, #267, .F. ) ;
#2 = CALENDAR_DATE ( 2021, 21, 9 ) ;
#3 = PERSON_AND_ORGANIZATION ( #253, #283 ) ;
#4 = DIRECTION ( 'NONE',  ( 3.491481338843133355E-15, -1.224646799147352961E-16, 1.000000000000000000 ) ) ;
#5 = CARTESIAN_POINT ( 'NONE',  ( 6.982962677686324297E-15, 1.999999999999994005, 2.000000000000016431 ) ) ;
#6 = ADVANCED_FACE ( 'NONE', ( #27 ), #221, .T. ) ;
#7 = DESIGN_CONTEXT ( 'detailed design', #129, 'design' ) ;
#8 = DIRECTION ( 'NONE',  ( -3.491481338843133355E-15, 1.224646799147352961E-16, -1.000000000000000000 ) ) ;
#9 = EDGE_CURVE ( 'NONE', #198, #160, #47, .T. ) ;
#10 = AXIS2_PLACEMENT_3D ( 'NONE', #121, #54, #173 ) ;
#11 = CARTESIAN_POINT ( 'NONE',  ( 6.982962677686321142E-15, -1.999999999999994893, 2.000000000000015543 ) ) ;
#12 = CARTESIAN_POINT ( 'NONE',  ( 1.745740669421566678E-13, -6.123233995736764507E-15, 50.00000000000000000 ) ) ;
#13 = FACE_OUTER_BOUND ( 'NONE', #241, .T. ) ;
#14 = DIRECTION ( 'NONE',  ( -3.491481338843133355E-15, 1.224646799147352961E-16, -1.000000000000000000 ) ) ;
#15 = DIRECTION ( 'NONE',  ( 0.0000000000000000000, 1.000000000000000000, 0.0000000000000000000 ) ) ;
#16 = CARTESIAN_POINT ( 'NONE',  ( 6.982962677686322720E-15, -2.449293598294725643E-16, 2.000000000000015987 ) ) ;
#17 = DIRECTION ( 'NONE',  ( -3.491481338843133355E-15, 1.224646799147352961E-16, -1.000000000000000000 ) ) ;
#18 = ADVANCED_FACE ( 'NONE', ( #13 ), #97, .F. ) ;
#19 = CALENDAR_DATE ( 2021, 21, 9 ) ;
#20 = VECTOR ( 'NONE', #260, 1000.000000000000114 ) ;
#21 = COORDINATED_UNIVERSAL_TIME_OFFSET ( 1, 0, .AHEAD. ) ;
#22 = APPROVAL_DATE_TIME ( #268, #204 ) ;
#23 = APPROVAL_PERSON_ORGANIZATION ( #134, #204, #246 ) ;
#24 = ORIENTED_EDGE ( 'NONE', *, *, #245, .T. ) ;
#25 = CARTESIAN_POINT ( 'NONE',  ( 1.745740669421566678E-13, -6.123233995736764507E-15, 50.00000000000000000 ) ) ;
#26 = ORIENTED_EDGE ( 'NONE', *, *, #9, .T. ) ;
#27 = FACE_OUTER_BOUND ( 'NONE', #200, .T. ) ;
#28 = CARTESIAN_POINT ( 'NONE',  ( 6.982962677686322720E-15, -2.449293598294725643E-16, 2.000000000000015987 ) ) ;
#29 = CIRCLE ( 'NONE', #75, 1.599999999999993872 ) ;
#30 = CARTESIAN_POINT ( 'NONE',  ( 1.745740669421566678E-13, 1.199807826129471854E-32, 50.00000000000000000 ) ) ;
#31 = CC_DESIGN_PERSON_AND_ORGANIZATION_ASSIGNMENT ( #3, #46, ( #235 ) ) ;
#32 = PRODUCT_RELATED_PRODUCT_CATEGORY ( 'detail', '', ( #102 ) ) ;
#33 = DIRECTION ( 'NONE',  ( 2.468850131082278754E-15, -0.7071067811865437980, 0.7071067811865513475 ) ) ;
#34 = CC_DESIGN_PERSON_AND_ORGANIZATION_ASSIGNMENT ( #180, #67, ( #102 ) ) ;
#35 = DIRECTION ( 'NONE',  ( 1.000000000000000000, 0.0000000000000000000, 0.0000000000000000000 ) ) ;
#36 = MANIFOLD_SOLID_BREP ( 'Corps-Déplacer/Copier1[1]', #202 ) ;
#37 = CALENDAR_DATE ( 2021, 21, 9 ) ;
#38 = APPROVAL_ROLE ( '' ) ;
#39 = CIRCLE ( 'NONE', #215, 1.999999999999994005 ) ;
#40 = LOCAL_TIME ( 9, 37, 55.00000000000000000, #112 ) ;
#41 = VERTEX_POINT ( 'NONE', #5 ) ;
#42 = ORIENTED_EDGE ( 'NONE', *, *, #224, .T. ) ;
#43 = EDGE_LOOP ( 'NONE', ( #128, #140, #24, #209 ) ) ;
#44 = DATE_AND_TIME ( #19, #148 ) ;
#45 = ORIENTED_EDGE ( 'NONE', *, *, #211, .F. ) ;
#46 = PERSON_AND_ORGANIZATION_ROLE ( 'design_supplier' ) ;
#47 = CIRCLE ( 'NONE', #10, 1.999999999999994005 ) ;
#48 = CC_DESIGN_SECURITY_CLASSIFICATION ( #133, ( #235 ) ) ;
#49 = AXIS2_PLACEMENT_3D ( 'NONE', #166, #250, #58 ) ;
#50 = CARTESIAN_POINT ( 'NONE',  ( 0.0000000000000000000, 0.0000000000000000000, 0.0000000000000000000 ) ) ;
#51 = APPROVAL ( #161, 'UNSPECIFIED' ) ;
#52 = LINE ( 'NONE', #145, #214 ) ;
#53 = CIRCLE ( 'NONE', #164, 1.999999999999994449 ) ;
#54 = DIRECTION ( 'NONE',  ( -3.491481338843133355E-15, 1.224646799147352961E-16, -1.000000000000000000 ) ) ;
#55 = ORIENTED_EDGE ( 'NONE', *, *, #66, .T. ) ;
#56 = APPROVAL ( #94, 'UNSPECIFIED' ) ;
#57 = ADVANCED_FACE ( 'NONE', ( #117 ), #226, .T. ) ;
#58 = DIRECTION ( 'NONE',  ( 7.703719777548964432E-31, 1.000000000000000000, 2.168404344971014784E-16 ) ) ;
#59 = LINE ( 'NONE', #81, #20 ) ;
#60 = DIRECTION ( 'NONE',  ( 0.0000000000000000000, 0.0000000000000000000, 1.000000000000000000 ) ) ;
#61 = DIRECTION ( 'NONE',  ( 2.555445736705828206E-15, 0.7071067811865435759, 0.7071067811865515695 ) ) ;
#62 = DIRECTION ( 'NONE',  ( -3.491481338843133355E-15, 1.224646799147352961E-16, -1.000000000000000000 ) ) ;
#63 = PERSON_AND_ORGANIZATION ( #253, #283 ) ;
#64 = VERTEX_POINT ( 'NONE', #95 ) ;
#65 = COORDINATED_UNIVERSAL_TIME_OFFSET ( 1, 0, .AHEAD. ) ;
#66 = EDGE_CURVE ( 'NONE', #137, #157, #262, .T. ) ;
#67 = PERSON_AND_ORGANIZATION_ROLE ( 'design_owner' ) ;
#68 = ORIENTED_EDGE ( 'NONE', *, *, #9, .F. ) ;
#69 = APPROVAL_ROLE ( '' ) ;
#70 = CARTESIAN_POINT ( 'NONE',  ( 0.0000000000000000000, 0.0000000000000000000, 0.0000000000000000000 ) ) ;
#71 = EDGE_LOOP ( 'NONE', ( #277, #42, #237, #167 ) ) ;
#72 = EDGE_CURVE ( 'NONE', #198, #41, #52, .T. ) ;
#73 = CIRCLE ( 'NONE', #181, 1.599999999999993872 ) ;
#74 = DIRECTION ( 'NONE',  ( -3.491481338843133355E-15, 1.224646799147352961E-16, -1.000000000000000000 ) ) ;
#75 = AXIS2_PLACEMENT_3D ( 'NONE', #261, #14, #15 ) ;
#76 = DIRECTION ( 'NONE',  ( 3.491481338843133355E-15, -1.224646799147352961E-16, 1.000000000000000000 ) ) ;
#77 = DIRECTION ( 'NONE',  ( 0.0000000000000000000, 1.000000000000000000, 0.0000000000000000000 ) ) ;
#78 = ADVANCED_FACE ( 'NONE', ( #213 ), #287, .T. ) ;
#79 = CARTESIAN_POINT ( 'NONE',  ( 1.731774744066194397E-13, -6.074248123770871079E-15, 49.60000000000000853 ) ) ;
#80 = CARTESIAN_POINT ( 'NONE',  ( 6.982962677686321142E-15, -1.999999999999994893, 2.000000000000015543 ) ) ;
#81 = CARTESIAN_POINT ( 'NONE',  ( 1.745740669421566678E-13, 1.599999999999987654, 50.00000000000000000 ) ) ;
#82 = CARTESIAN_POINT ( 'NONE',  ( 6.982962677686322720E-15, -2.449293598294725643E-16, 2.000000000000015987 ) ) ;
#83 = CLOSED_SHELL ( 'NONE', ( #6, #286, #57 ) ) ;
#84 = EDGE_LOOP ( 'NONE', ( #116, #127, #210 ) ) ;
#85 = CONICAL_SURFACE ( 'NONE', #257, 1.999999999999994449, 0.7853981633974428389 ) ;
#86 = LINE ( 'NONE', #101, #282 ) ;
#87 = ORIENTED_EDGE ( 'NONE', *, *, #273, .T. ) ;
#88 = MECHANICAL_CONTEXT ( 'NONE', #263, 'mechanical' ) ;
#89 = ORIENTED_EDGE ( 'NONE', *, *, #66, .F. ) ;
#90 = APPROVAL_DATE_TIME ( #197, #51 ) ;
#91 = APPROVAL_STATUS ( 'not_yet_approved' ) ;
#92 = ADVANCED_FACE ( 'NONE', ( #168 ), #231, .F. ) ;
#93 = DIRECTION ( 'NONE',  ( -3.491481338843133355E-15, 1.224646799147352961E-16, -1.000000000000000000 ) ) ;
#94 = APPROVAL_STATUS ( 'not_yet_approved' ) ;
#95 = CARTESIAN_POINT ( 'NONE',  ( 0.0000000000000000000, 0.0000000000000000000, 0.0000000000000000000 ) ) ;
#96 = CC_DESIGN_APPROVAL ( #204, ( #254 ) ) ;
#97 = PLANE ( 'NONE',  #255 ) ;
#98 = CARTESIAN_POINT ( 'NONE',  ( 1.745740669421566678E-13, 1.599999999999987654, 50.00000000000000000 ) ) ;
#99 = AXIS2_PLACEMENT_3D ( 'NONE', #205, #4, #186 ) ;
#100 = CC_DESIGN_DATE_AND_TIME_ASSIGNMENT ( #44, #217, ( #254 ) ) ;
#101 = CARTESIAN_POINT ( 'NONE',  ( 1.747700104300202289E-13, -1.599999999999999867, 50.00000000000000000 ) ) ;
#102 = PRODUCT ( '36911', '36911', '', ( #88 ) ) ;
#103 = CARTESIAN_POINT ( 'NONE',  ( 7.227892037515792227E-15, 1.999999999999994005, 2.000000000000016431 ) ) ;
#104 = APPROVAL_PERSON_ORGANIZATION ( #203, #51, #69 ) ;
#105 =( NAMED_UNIT ( * ) SI_UNIT ( $, .STERADIAN. ) SOLID_ANGLE_UNIT ( ) );
#106 = DIRECTION ( 'NONE',  ( 7.703719777548964432E-31, 1.000000000000000000, 2.168404344971014784E-16 ) ) ;
#107 = DIRECTION ( 'NONE',  ( 3.491481338843133355E-15, -1.224646799147352961E-16, 1.000000000000000000 ) ) ;
#108 = CIRCLE ( 'NONE', #272, 1.999999999999994449 ) ;
#109 = CALENDAR_DATE ( 2021, 21, 9 ) ;
#110 = ADVANCED_FACE ( 'NONE', ( #120 ), #269, .T. ) ;
#111 = VERTEX_POINT ( 'NONE', #98 ) ;
#112 = COORDINATED_UNIVERSAL_TIME_OFFSET ( 1, 0, .AHEAD. ) ;
#113 = PERSON_AND_ORGANIZATION ( #253, #283 ) ;
#114 = AXIS2_PLACEMENT_3D ( 'NONE', #274, #76, #118 ) ;
#115 = ADVANCED_FACE ( 'NONE', ( #187 ), #163, .T. ) ;
#116 = ORIENTED_EDGE ( 'NONE', *, *, #273, .F. ) ;
#117 = FACE_OUTER_BOUND ( 'NONE', #249, .T. ) ;
#118 = DIRECTION ( 'NONE',  ( -7.703719777548964432E-31, -1.000000000000000000, -2.168404344971014784E-16 ) ) ;
#119 = VERTEX_POINT ( 'NONE', #162 ) ;
#120 = FACE_OUTER_BOUND ( 'NONE', #71, .T. ) ;
#121 = CARTESIAN_POINT ( 'NONE',  ( 1.731774744066194397E-13, -6.074248123770871079E-15, 49.60000000000000853 ) ) ;
#122 = DIRECTION ( 'NONE',  ( 0.0000000000000000000, 1.000000000000000000, 0.0000000000000000000 ) ) ;
#123 = CARTESIAN_POINT ( 'NONE',  ( 1.731774744066194397E-13, 1.999999999999988010, 49.60000000000000853 ) ) ;
#124 = DIRECTION ( 'NONE',  ( 7.703719777548964432E-31, 1.000000000000000000, 2.168404344971014784E-16 ) ) ;
#125 = CC_DESIGN_APPROVAL ( #56, ( #133 ) ) ;
#126 = APPLICATION_PROTOCOL_DEFINITION ( 'international standard', 'config_control_design', 1994, #263 ) ;
#127 = ORIENTED_EDGE ( 'NONE', *, *, #194, .T. ) ;
#128 = ORIENTED_EDGE ( 'NONE', *, *, #208, .F. ) ;
#129 = APPLICATION_CONTEXT ( 'configuration controlled 3d designs of mechanical parts and assemblies' ) ;
#130 = CALENDAR_DATE ( 2021, 21, 9 ) ;
#131 = CC_DESIGN_PERSON_AND_ORGANIZATION_ASSIGNMENT ( #63, #222, ( #235 ) ) ;
#132 = CIRCLE ( 'NONE', #152, 1.999999999999994449 ) ;
#133 = SECURITY_CLASSIFICATION ( '', '', #219 ) ;
#134 = PERSON_AND_ORGANIZATION ( #253, #283 ) ;
#135 = CARTESIAN_POINT ( 'NONE',  ( 7.227892037515792227E-15, 1.999999999999994005, 2.000000000000016431 ) ) ;
#136 = ORIENTED_EDGE ( 'NONE', *, *, #72, .F. ) ;
#137 = VERTEX_POINT ( 'NONE', #135 ) ;
#138 = EDGE_CURVE ( 'NONE', #119, #111, #73, .T. ) ;
#139 = APPLICATION_PROTOCOL_DEFINITION ( 'international standard', 'config_control_design', 1994, #129 ) ;
#140 = ORIENTED_EDGE ( 'NONE', *, *, #138, .T. ) ;
#141 = COORDINATED_UNIVERSAL_TIME_OFFSET ( 1, 0, .AHEAD. ) ;
#142 = DIRECTION ( 'NONE',  ( -3.491481338843133355E-15, 1.224646799147352961E-16, -1.000000000000000000 ) ) ;
#143 = ORIENTED_EDGE ( 'NONE', *, *, #185, .T. ) ;
#144 = PRODUCT_DEFINITION_SHAPE ( 'NONE', 'NONE',  #254 ) ;
#145 = CARTESIAN_POINT ( 'NONE',  ( 8.551662891793890939E-31, 1.999999999999994005, 2.449293598294698526E-16 ) ) ;
#146 = DIRECTION ( 'NONE',  ( -4.275831445896957731E-31, -1.000000000000000000, -1.224646799147352961E-16 ) ) ;
#147 = VECTOR ( 'NONE', #61, 1000.000000000000000 ) ;
#148 = LOCAL_TIME ( 9, 37, 55.00000000000000000, #65 ) ;
#149 = CARTESIAN_POINT ( 'NONE',  ( 9.032514790198234873E-14, -1.999999999999994893, 2.000000000000015543 ) ) ;
#150 = DIRECTION ( 'NONE',  ( -3.491481338843133355E-15, 1.224646799147352961E-16, -1.000000000000000000 ) ) ;
#151 = CARTESIAN_POINT ( 'NONE',  ( 2.449293598294690637E-16, -1.999999999999994005, -2.449293598294706907E-16 ) ) ;
#152 = AXIS2_PLACEMENT_3D ( 'NONE', #28, #281, #106 ) ;
#153 = DIRECTION ( 'NONE',  ( -7.703719777548964432E-31, -1.000000000000000000, -2.168404344971014784E-16 ) ) ;
#154 = EDGE_LOOP ( 'NONE', ( #220, #243 ) ) ;
#155 = CC_DESIGN_PERSON_AND_ORGANIZATION_ASSIGNMENT ( #113, #179, ( #254 ) ) ;
#156 = FACE_OUTER_BOUND ( 'NONE', #43, .T. ) ;
#157 = VERTEX_POINT ( 'NONE', #11 ) ;
#158 = ORIENTED_EDGE ( 'NONE', *, *, #194, .F. ) ;
#159 = DATE_AND_TIME ( #37, #178 ) ;
#160 = VERTEX_POINT ( 'NONE', #169 ) ;
#161 = APPROVAL_STATUS ( 'not_yet_approved' ) ;
#162 = CARTESIAN_POINT ( 'NONE',  ( 1.740962070982345820E-13, -1.599999999999999867, 50.00000000000000000 ) ) ;
#163 = CYLINDRICAL_SURFACE ( 'NONE', #252, 1.999999999999994005 ) ;
#164 = AXIS2_PLACEMENT_3D ( 'NONE', #82, #62, #278 ) ;
#165 = LOCAL_TIME ( 9, 37, 55.00000000000000000, #270 ) ;
#166 = CARTESIAN_POINT ( 'NONE',  ( 6.982962677686322720E-15, -2.449293598294725643E-16, 2.000000000000015987 ) ) ;
#167 = ORIENTED_EDGE ( 'NONE', *, *, #185, .F. ) ;
#168 = FACE_OUTER_BOUND ( 'NONE', #154, .T. ) ;
#169 = CARTESIAN_POINT ( 'NONE',  ( 9.032514790198223513E-14, -2.000000000000000000, 49.60000000000000853 ) ) ;
#170 = EDGE_LOOP ( 'NONE', ( #26, #206, #45, #136 ) ) ;
#171 = LINE ( 'NONE', #103, #147 ) ;
#172 = AXIS2_PLACEMENT_3D ( 'NONE', #30, #93, #183 ) ;
#173 = DIRECTION ( 'NONE',  ( 0.0000000000000000000, 1.000000000000000000, 0.0000000000000000000 ) ) ;
#174 = VECTOR ( 'NONE', #33, 1000.000000000000000 ) ;
#175 = LOCAL_TIME ( 9, 37, 55.00000000000000000, #141 ) ;
#176 = CC_DESIGN_PERSON_AND_ORGANIZATION_ASSIGNMENT ( #201, #266, ( #133 ) ) ;
#177 = CARTESIAN_POINT ( 'NONE',  ( 0.0000000000000000000, 0.0000000000000000000, 0.0000000000000000000 ) ) ;
#178 = LOCAL_TIME ( 9, 37, 55.00000000000000000, #21 ) ;
#179 = PERSON_AND_ORGANIZATION_ROLE ( 'creator' ) ;
#180 = PERSON_AND_ORGANIZATION ( #253, #283 ) ;
#181 = AXIS2_PLACEMENT_3D ( 'NONE', #271, #74, #248 ) ;
#182 = ORIENTED_EDGE ( 'NONE', *, *, #245, .F. ) ;
#183 = DIRECTION ( 'NONE',  ( 4.275831445896957731E-31, 1.000000000000000000, 1.224646799147352961E-16 ) ) ;
#184 = CARTESIAN_POINT ( 'NONE',  ( 6.982962677686329819E-15, -4.770489558936261319E-15, 2.000000000000018208 ) ) ;
#185 = EDGE_CURVE ( 'NONE', #247, #41, #132, .T. ) ;
#186 = DIRECTION ( 'NONE',  ( -4.275831445896957731E-31, -1.000000000000000000, -1.224646799147352961E-16 ) ) ;
#187 = FACE_OUTER_BOUND ( 'NONE', #170, .T. ) ;
#188 = AXIS2_PLACEMENT_3D ( 'NONE', #25, #207, #77 ) ;
#189 = DIRECTION ( 'NONE',  ( 0.0000000000000000000, 1.000000000000000000, 0.0000000000000000000 ) ) ;
#190 = ORIENTED_EDGE ( 'NONE', *, *, #211, .T. ) ;
#191 = EDGE_CURVE ( 'NONE', #160, #247, #259, .T. ) ;
#192 = APPROVAL_PERSON_ORGANIZATION ( #238, #56, #38 ) ;
#193 = DIRECTION ( 'NONE',  ( -2.382254525458707609E-15, -0.7071067811865497932, -0.7071067811865453523 ) ) ;
#194 = EDGE_CURVE ( 'NONE', #64, #157, #232, .T. ) ;
#195 =( NAMED_UNIT ( * ) PLANE_ANGLE_UNIT ( ) SI_UNIT ( $, .RADIAN. ) );
#196 = AXIS2_PLACEMENT_3D ( 'NONE', #70, #8, #251 ) ;
#197 = DATE_AND_TIME ( #2, #175 ) ;
#198 = VERTEX_POINT ( 'NONE', #123 ) ;
#199 = APPROVAL_DATE_TIME ( #159, #56 ) ;
#200 = EDGE_LOOP ( 'NONE', ( #158, #87, #55 ) ) ;
#201 = PERSON_AND_ORGANIZATION ( #253, #283 ) ;
#202 = CLOSED_SHELL ( 'NONE', ( #78, #115, #18, #110, #276, #92 ) ) ;
#203 = PERSON_AND_ORGANIZATION ( #253, #283 ) ;
#204 = APPROVAL ( #91, 'UNSPECIFIED' ) ;
#205 = CARTESIAN_POINT ( 'NONE',  ( 6.982962677686329819E-15, -4.770489558936261319E-15, 2.000000000000018208 ) ) ;
#206 = ORIENTED_EDGE ( 'NONE', *, *, #191, .T. ) ;
#207 = DIRECTION ( 'NONE',  ( -3.491481338843133355E-15, 1.224646799147352961E-16, -1.000000000000000000 ) ) ;
#208 = EDGE_CURVE ( 'NONE', #119, #160, #86, .T. ) ;
#209 = ORIENTED_EDGE ( 'NONE', *, *, #224, .F. ) ;
#210 = ORIENTED_EDGE ( 'NONE', *, *, #267, .T. ) ;
#211 = EDGE_CURVE ( 'NONE', #41, #247, #53, .T. ) ;
#212 = FACE_OUTER_BOUND ( 'NONE', #84, .T. ) ;
#213 = FACE_OUTER_BOUND ( 'NONE', #228, .T. ) ;
#214 = VECTOR ( 'NONE', #150, 1000.000000000000000 ) ;
#215 = AXIS2_PLACEMENT_3D ( 'NONE', #79, #234, #189 ) ;
#216 = CARTESIAN_POINT ( 'NONE',  ( 6.982962677686322720E-15, -2.449293598294725643E-16, 2.000000000000015987 ) ) ;
#217 = DATE_TIME_ROLE ( 'creation_date' ) ;
#218 = CONICAL_SURFACE ( 'NONE', #240, 1.599999999999993872, 0.7853981633974516097 ) ;
#219 = SECURITY_CLASSIFICATION_LEVEL ( 'unclassified' ) ;
#220 = ORIENTED_EDGE ( 'NONE', *, *, #230, .F. ) ;
#221 = CONICAL_SURFACE ( 'NONE', #114, 1.999999999999994449, 0.7853981633974428389 ) ;
#222 = PERSON_AND_ORGANIZATION_ROLE ( 'creator' ) ;
#223 = ADVANCED_BREP_SHAPE_REPRESENTATION ( '36911', ( #36, #225, #229 ), #227 ) ;
#224 = EDGE_CURVE ( 'NONE', #160, #198, #39, .T. ) ;
#225 = MANIFOLD_SOLID_BREP ( 'Corps-Déplacer/Copier1[2]', #83 ) ;
#226 = PLANE ( 'NONE',  #99 ) ;
#227 =( GEOMETRIC_REPRESENTATION_CONTEXT ( 3 ) GLOBAL_UNCERTAINTY_ASSIGNED_CONTEXT ( ( #280 ) ) GLOBAL_UNIT_ASSIGNED_CONTEXT ( ( #236, #195, #105 ) ) REPRESENTATION_CONTEXT ( 'NONE', 'WORKASPACE' ) );
#228 = EDGE_LOOP ( 'NONE', ( #244, #265, #68, #182 ) ) ;
#229 = AXIS2_PLACEMENT_3D ( 'NONE', #177, #60, #35 ) ;
#230 = EDGE_CURVE ( 'NONE', #111, #119, #29, .T. ) ;
#231 = PLANE ( 'NONE',  #172 ) ;
#232 = LINE ( 'NONE', #80, #174 ) ;
#233 = DIRECTION ( 'NONE',  ( 4.275831445896958607E-31, 1.000000000000000000, 1.224646799147352961E-16 ) ) ;
#234 = DIRECTION ( 'NONE',  ( -3.491481338843133355E-15, 1.224646799147352961E-16, -1.000000000000000000 ) ) ;
#235 = PRODUCT_DEFINITION_FORMATION_WITH_SPECIFIED_SOURCE ( 'ANY', '', #102, .NOT_KNOWN. ) ;
#236 =( LENGTH_UNIT ( ) NAMED_UNIT ( * ) SI_UNIT ( .MILLI., .METRE. ) );
#237 = ORIENTED_EDGE ( 'NONE', *, *, #72, .T. ) ;
#238 = PERSON_AND_ORGANIZATION ( #253, #283 ) ;
#239 = VECTOR ( 'NONE', #279, 1000.000000000000000 ) ;
#240 = AXIS2_PLACEMENT_3D ( 'NONE', #12, #256, #122 ) ;
#241 = EDGE_LOOP ( 'NONE', ( #190, #143 ) ) ;
#242 = SHAPE_DEFINITION_REPRESENTATION ( #144, #223 ) ;
#243 = ORIENTED_EDGE ( 'NONE', *, *, #138, .F. ) ;
#244 = ORIENTED_EDGE ( 'NONE', *, *, #230, .T. ) ;
#245 = EDGE_CURVE ( 'NONE', #111, #198, #59, .T. ) ;
#246 = APPROVAL_ROLE ( '' ) ;
#247 = VERTEX_POINT ( 'NONE', #149 ) ;
#248 = DIRECTION ( 'NONE',  ( 0.0000000000000000000, 1.000000000000000000, 0.0000000000000000000 ) ) ;
#249 = EDGE_LOOP ( 'NONE', ( #1, #89 ) ) ;
#250 = DIRECTION ( 'NONE',  ( -3.491481338843133355E-15, 1.224646799147352961E-16, -1.000000000000000000 ) ) ;
#251 = DIRECTION ( 'NONE',  ( 4.275831445896958607E-31, 1.000000000000000000, 1.224646799147352961E-16 ) ) ;
#252 = AXIS2_PLACEMENT_3D ( 'NONE', #50, #142, #233 ) ;
#253 = PERSON ( 'UNSPECIFIED', 'UNSPECIFIED', 'UNSPECIFIED', ('UNSPECIFIED'), ('UNSPECIFIED'), ('UNSPECIFIED') ) ;
#254 = PRODUCT_DEFINITION ( 'UNKNOWN', '', #235, #7 ) ;
#255 = AXIS2_PLACEMENT_3D ( 'NONE', #184, #258, #146 ) ;
#256 = DIRECTION ( 'NONE',  ( -3.491481338843133355E-15, 1.224646799147352961E-16, -1.000000000000000000 ) ) ;
#257 = AXIS2_PLACEMENT_3D ( 'NONE', #16, #107, #153 ) ;
#258 = DIRECTION ( 'NONE',  ( 3.491481338843133355E-15, -1.224646799147352961E-16, 1.000000000000000000 ) ) ;
#259 = LINE ( 'NONE', #151, #239 ) ;
#260 = DIRECTION ( 'NONE',  ( -2.468850131082256666E-15, 0.7071067811865500152, -0.7071067811865451302 ) ) ;
#261 = CARTESIAN_POINT ( 'NONE',  ( 1.745740669421566678E-13, -6.123233995736764507E-15, 50.00000000000000000 ) ) ;
#262 = CIRCLE ( 'NONE', #49, 1.999999999999994449 ) ;
#263 = APPLICATION_CONTEXT ( 'configuration controlled 3d designs of mechanical parts and assemblies' ) ;
#264 = DATE_TIME_ROLE ( 'classification_date' ) ;
#265 = ORIENTED_EDGE ( 'NONE', *, *, #208, .T. ) ;
#266 = PERSON_AND_ORGANIZATION_ROLE ( 'classification_officer' ) ;
#267 = EDGE_CURVE ( 'NONE', #157, #137, #108, .T. ) ;
#268 = DATE_AND_TIME ( #130, #165 ) ;
#269 = CYLINDRICAL_SURFACE ( 'NONE', #196, 1.999999999999994005 ) ;
#270 = COORDINATED_UNIVERSAL_TIME_OFFSET ( 1, 0, .AHEAD. ) ;
#271 = CARTESIAN_POINT ( 'NONE',  ( 1.745740669421566678E-13, -6.123233995736764507E-15, 50.00000000000000000 ) ) ;
#272 = AXIS2_PLACEMENT_3D ( 'NONE', #216, #17, #124 ) ;
#273 = EDGE_CURVE ( 'NONE', #64, #137, #171, .T. ) ;
#274 = CARTESIAN_POINT ( 'NONE',  ( 6.982962677686322720E-15, -2.449293598294725643E-16, 2.000000000000015987 ) ) ;
#275 = CC_DESIGN_APPROVAL ( #51, ( #235 ) ) ;
#276 = ADVANCED_FACE ( 'NONE', ( #156 ), #218, .T. ) ;
#277 = ORIENTED_EDGE ( 'NONE', *, *, #191, .F. ) ;
#278 = DIRECTION ( 'NONE',  ( 7.703719777548964432E-31, 1.000000000000000000, 2.168404344971014784E-16 ) ) ;
#279 = DIRECTION ( 'NONE',  ( -3.491481338843133355E-15, 1.224646799147352961E-16, -1.000000000000000000 ) ) ;
#280 = UNCERTAINTY_MEASURE_WITH_UNIT (LENGTH_MEASURE( 1.000000000000000082E-05 ), #236, 'distance_accuracy_value', 'NONE');
#281 = DIRECTION ( 'NONE',  ( -3.491481338843133355E-15, 1.224646799147352961E-16, -1.000000000000000000 ) ) ;
#282 = VECTOR ( 'NONE', #193, 1000.000000000000114 ) ;
#283 = ORGANIZATION ( 'UNSPECIFIED', 'UNSPECIFIED', '' ) ;
#284 = CC_DESIGN_DATE_AND_TIME_ASSIGNMENT ( #285, #264, ( #133 ) ) ;
#285 = DATE_AND_TIME ( #109, #40 ) ;
#286 = ADVANCED_FACE ( 'NONE', ( #212 ), #85, .T. ) ;
#287 = CONICAL_SURFACE ( 'NONE', #188, 1.599999999999993872, 0.7853981633974516097 ) ;
ENDSEC;
END-ISO-10303-21;
