ISO-10303-21;
HEADER;
FILE_DESCRIPTION (( 'STEP AP203' ),
    '1' );
FILE_NAME ('36838.step',
    '2021-10-07T13:46:37',
    ( '' ),
    ( '' ),
    'SwSTEP 2.0',
    'SolidWorks 2019',
    '' );
FILE_SCHEMA (( 'CONFIG_CONTROL_DESIGN' ));
ENDSEC;

DATA;
#1 = APPROVAL ( #35, 'UNSPECIFIED' ) ;
#2 = UNCERTAINTY_MEASURE_WITH_UNIT (LENGTH_MEASURE( 1.000000000000000082E-05 ), #169, 'distance_accuracy_value', 'NONE');
#3 = DIRECTION ( 'NONE',  ( 3.491481338843133355E-15, -1.224646799147353207E-16, 1.000000000000000000 ) ) ;
#4 = PRODUCT_DEFINITION ( 'UNKNOWN', '', #137, #109 ) ;
#5 = EDGE_LOOP ( 'NONE', ( #81 ) ) ;
#6 = CLOSED_SHELL ( 'NONE', ( #202, #70, #63 ) ) ;
#7 = DIRECTION ( 'NONE',  ( -3.491481338843133355E-15, 1.224646799147353207E-16, -1.000000000000000000 ) ) ;
#8 = EDGE_LOOP ( 'NONE', ( #93 ) ) ;
#9 = EDGE_CURVE ( 'NONE', #104, #104, #181, .T. ) ;
#10 = CONICAL_SURFACE ( 'NONE', #207, 0.4000000000000000222, 0.7853981633974512766 ) ;
#11 = VERTEX_POINT ( 'NONE', #46 ) ;
#12 = DIRECTION ( 'NONE',  ( -2.874522305055595652E-31, -1.000000000000000000, -1.618212197739569976E-16 ) ) ;
#13 = ADVANCED_BREP_SHAPE_REPRESENTATION ( '36838', ( #173, #23, #210 ), #162 ) ;
#14 = DIRECTION ( 'NONE',  ( 1.000000000000000000, 0.0000000000000000000, 0.0000000000000000000 ) ) ;
#15 = CARTESIAN_POINT ( 'NONE',  ( 1.960742034300551129E-14, 0.4999999999999964473, 5.615788383248879079 ) ) ;
#16 = CC_DESIGN_PERSON_AND_ORGANIZATION_ASSIGNMENT ( #55, #118, ( #137 ) ) ;
#17 = COORDINATED_UNIVERSAL_TIME_OFFSET ( 1, 0, .AHEAD. ) ;
#18 = COORDINATED_UNIVERSAL_TIME_OFFSET ( 1, 0, .AHEAD. ) ;
#19 = PERSON_AND_ORGANIZATION ( #146, #67 ) ;
#20 = AXIS2_PLACEMENT_3D ( 'NONE', #39, #212, #145 ) ;
#21 = CC_DESIGN_APPROVAL ( #29, ( #137 ) ) ;
#22 = DIRECTION ( 'NONE',  ( 0.0000000000000000000, 1.000000000000000000, 0.0000000000000000000 ) ) ;
#23 = MANIFOLD_SOLID_BREP ( 'Corps-Déplacer/Copier1[2]', #6 ) ;
#24 = CYLINDRICAL_SURFACE ( 'NONE', #155, 0.4999999999999985012 ) ;
#25 = FACE_OUTER_BOUND ( 'NONE', #196, .T. ) ;
#26 = CONICAL_SURFACE ( 'NONE', #44, 0.4999999999999970579, 0.2617993877991419693 ) ;
#27 = EDGE_LOOP ( 'NONE', ( #92 ) ) ;
#28 = DIRECTION ( 'NONE',  ( -3.491481338843133355E-15, 1.224646799147353207E-16, -1.000000000000000000 ) ) ;
#29 = APPROVAL ( #221, 'UNSPECIFIED' ) ;
#30 = CARTESIAN_POINT ( 'NONE',  ( 7.027943689244569141E-16, -2.465070813316436466E-17, 0.2012883073742335049 ) ) ;
#31 = AXIS2_PLACEMENT_3D ( 'NONE', #99, #150, #52 ) ;
#32 = DIRECTION ( 'NONE',  ( 2.874522305055595652E-31, 1.000000000000000000, 1.618212197739569976E-16 ) ) ;
#33 = APPLICATION_PROTOCOL_DEFINITION ( 'international standard', 'config_control_design', 1994, #159 ) ;
#34 = FACE_OUTER_BOUND ( 'NONE', #182, .T. ) ;
#35 = APPROVAL_STATUS ( 'not_yet_approved' ) ;
#36 = CALENDAR_DATE ( 2021, 7, 10 ) ;
#37 = CALENDAR_DATE ( 2021, 7, 10 ) ;
#38 = PERSON_AND_ORGANIZATION ( #146, #67 ) ;
#39 = CARTESIAN_POINT ( 'NONE',  ( 1.047444401652940007E-13, 2.999519565323660135E-33, 30.00000000000000000 ) ) ;
#40 = AXIS2_PLACEMENT_3D ( 'NONE', #183, #28, #165 ) ;
#41 = FACE_OUTER_BOUND ( 'NONE', #62, .T. ) ;
#42 = DIRECTION ( 'NONE',  ( 0.0000000000000000000, 1.000000000000000000, 0.0000000000000000000 ) ) ;
#43 = DIRECTION ( 'NONE',  ( -3.491481338843133355E-15, 1.224646799147353207E-16, -1.000000000000000000 ) ) ;
#44 = AXIS2_PLACEMENT_3D ( 'NONE', #215, #3, #213 ) ;
#45 = CARTESIAN_POINT ( 'NONE',  ( 0.0000000000000000000, 0.0000000000000000000, 0.0000000000000000000 ) ) ;
#46 = CARTESIAN_POINT ( 'NONE',  ( 1.745740669421566678E-14, 0.3349999999999977440, 5.000000000000000000 ) ) ;
#47 = EDGE_LOOP ( 'NONE', ( #133 ) ) ;
#48 = COORDINATED_UNIVERSAL_TIME_OFFSET ( 1, 0, .AHEAD. ) ;
#49 = ADVANCED_FACE ( 'NONE', ( #78, #143 ), #10, .T. ) ;
#50 = CONICAL_SURFACE ( 'NONE', #79, 0.3349999999999976885, 1.029744258676649649 ) ;
#51 = APPROVAL_PERSON_ORGANIZATION ( #19, #29, #191 ) ;
#52 = DIRECTION ( 'NONE',  ( 0.0000000000000000000, 1.000000000000000000, 0.0000000000000000000 ) ) ;
#53 = DIRECTION ( 'NONE',  ( -3.491481338843133355E-15, 1.224646799147353207E-16, -1.000000000000000000 ) ) ;
#54 = ADVANCED_FACE ( 'NONE', ( #164, #147 ), #26, .T. ) ;
#55 = PERSON_AND_ORGANIZATION ( #146, #67 ) ;
#56 = SECURITY_CLASSIFICATION_LEVEL ( 'unclassified' ) ;
#57 = COORDINATED_UNIVERSAL_TIME_OFFSET ( 1, 0, .AHEAD. ) ;
#58 = CC_DESIGN_DATE_AND_TIME_ASSIGNMENT ( #107, #156, ( #4 ) ) ;
#59 = CC_DESIGN_PERSON_AND_ORGANIZATION_ASSIGNMENT ( #219, #69, ( #72 ) ) ;
#60 = FACE_OUTER_BOUND ( 'NONE', #5, .T. ) ;
#61 = ORIENTED_EDGE ( 'NONE', *, *, #74, .F. ) ;
#62 = EDGE_LOOP ( 'NONE', ( #125 ) ) ;
#63 = ADVANCED_FACE ( 'NONE', ( #25 ), #121, .T. ) ;
#64 = CARTESIAN_POINT ( 'NONE',  ( 1.745740669421566678E-14, 2.512097635958589803E-33, 5.000000000000000000 ) ) ;
#65 = CARTESIAN_POINT ( 'NONE',  ( 0.0000000000000000000, 0.0000000000000000000, 0.0000000000000000000 ) ) ;
#66 = CARTESIAN_POINT ( 'NONE',  ( 7.027943689244569141E-16, -2.465070813316436466E-17, 0.2012883073742335049 ) ) ;
#67 = ORGANIZATION ( 'UNSPECIFIED', 'UNSPECIFIED', '' ) ;
#68 = DIRECTION ( 'NONE',  ( 4.275831445896959482E-31, 1.000000000000000000, 1.224646799147353207E-16 ) ) ;
#69 = PERSON_AND_ORGANIZATION_ROLE ( 'design_owner' ) ;
#70 = ADVANCED_FACE ( 'NONE', ( #161, #124 ), #94, .T. ) ;
#71 = APPROVAL_ROLE ( '' ) ;
#72 = PRODUCT ( '36838', '36838', '', ( #152 ) ) ;
#73 = DATE_AND_TIME ( #37, #186 ) ;
#74 = EDGE_CURVE ( 'NONE', #198, #198, #188, .T. ) ;
#75 = DATE_AND_TIME ( #174, #87 ) ;
#76 = DATE_AND_TIME ( #36, #142 ) ;
#77 = DIRECTION ( 'NONE',  ( 4.275831445896958607E-31, 1.000000000000000000, 1.224646799147353207E-16 ) ) ;
#78 = FACE_OUTER_BOUND ( 'NONE', #47, .T. ) ;
#79 = AXIS2_PLACEMENT_3D ( 'NONE', #30, #187, #12 ) ;
#80 = CARTESIAN_POINT ( 'NONE',  ( 1.745740669421566678E-14, -6.123233995736766282E-16, 5.000000000000000000 ) ) ;
#81 = ORIENTED_EDGE ( 'NONE', *, *, #101, .T. ) ;
#82 = VERTEX_POINT ( 'NONE', #200 ) ;
#83 = DIRECTION ( 'NONE',  ( 0.0000000000000000000, 0.0000000000000000000, 1.000000000000000000 ) ) ;
#84 = DIRECTION ( 'NONE',  ( 3.491481338843133355E-15, -1.224646799147353207E-16, 1.000000000000000000 ) ) ;
#85 = AXIS2_PLACEMENT_3D ( 'NONE', #66, #166, #32 ) ;
#86 = CALENDAR_DATE ( 2021, 7, 10 ) ;
#87 = LOCAL_TIME ( 15, 46, 37.00000000000000000, #172 ) ;
#88 = CC_DESIGN_SECURITY_CLASSIFICATION ( #128, ( #137 ) ) ;
#89 = ORIENTED_EDGE ( 'NONE', *, *, #148, .T. ) ;
#90 = APPROVAL_PERSON_ORGANIZATION ( #139, #189, #71 ) ;
#91 = ADVANCED_FACE ( 'NONE', ( #41 ), #195, .F. ) ;
#92 = ORIENTED_EDGE ( 'NONE', *, *, #177, .F. ) ;
#93 = ORIENTED_EDGE ( 'NONE', *, *, #9, .F. ) ;
#94 = CYLINDRICAL_SURFACE ( 'NONE', #136, 0.3349999999999980216 ) ;
#95 = CARTESIAN_POINT ( 'NONE',  ( 1.047444401652940007E-13, -3.673940397442059178E-15, 30.00000000000000000 ) ) ;
#96 = DIRECTION ( 'NONE',  ( 0.0000000000000000000, 1.000000000000000000, 0.0000000000000000000 ) ) ;
#97 = CARTESIAN_POINT ( 'NONE',  ( 1.745740669421566678E-14, 2.512097635958589803E-33, 5.000000000000000000 ) ) ;
#98 = EDGE_CURVE ( 'NONE', #82, #82, #204, .T. ) ;
#99 = CARTESIAN_POINT ( 'NONE',  ( 1.745740669421566678E-14, -6.123233995736766282E-16, 5.000000000000000000 ) ) ;
#100 = DATE_AND_TIME ( #184, #102 ) ;
#101 = EDGE_CURVE ( 'NONE', #216, #216, #167, .T. ) ;
#102 = LOCAL_TIME ( 15, 46, 37.00000000000000000, #48 ) ;
#103 = APPLICATION_CONTEXT ( 'configuration controlled 3d designs of mechanical parts and assemblies' ) ;
#104 = VERTEX_POINT ( 'NONE', #15 ) ;
#105 = PERSON_AND_ORGANIZATION_ROLE ( 'design_supplier' ) ;
#106 = APPROVAL_STATUS ( 'not_yet_approved' ) ;
#107 = DATE_AND_TIME ( #86, #120 ) ;
#108 = PRODUCT_DEFINITION_SHAPE ( 'NONE', 'NONE',  #4 ) ;
#109 = DESIGN_CONTEXT ( 'detailed design', #159, 'design' ) ;
#110 = ORIENTED_EDGE ( 'NONE', *, *, #177, .T. ) ;
#111 = DIRECTION ( 'NONE',  ( -3.491481338843133355E-15, 1.224646799147353207E-16, -1.000000000000000000 ) ) ;
#112 = EDGE_LOOP ( 'NONE', ( #149 ) ) ;
#113 = ORIENTED_EDGE ( 'NONE', *, *, #74, .T. ) ;
#114 = DIRECTION ( 'NONE',  ( -3.491481338843133355E-15, 1.224646799147353207E-16, -1.000000000000000000 ) ) ;
#115 = APPLICATION_PROTOCOL_DEFINITION ( 'international standard', 'config_control_design', 1994, #103 ) ;
#116 = CARTESIAN_POINT ( 'NONE',  ( 1.043952920314096810E-13, 0.4999999999999963363, 29.89999999999999858 ) ) ;
#117 = APPROVAL_PERSON_ORGANIZATION ( #134, #1, #199 ) ;
#118 = PERSON_AND_ORGANIZATION_ROLE ( 'creator' ) ;
#119 = AXIS2_PLACEMENT_3D ( 'NONE', #158, #43, #42 ) ;
#120 = LOCAL_TIME ( 15, 46, 37.00000000000000000, #17 ) ;
#121 = PLANE ( 'NONE',  #214 ) ;
#122 = EDGE_LOOP ( 'NONE', ( #61 ) ) ;
#123 = CC_DESIGN_APPROVAL ( #189, ( #128 ) ) ;
#124 = FACE_OUTER_BOUND ( 'NONE', #144, .T. ) ;
#125 = ORIENTED_EDGE ( 'NONE', *, *, #98, .F. ) ;
#126 = DIRECTION ( 'NONE',  ( 3.491481338843133355E-15, -1.224646799147353207E-16, 1.000000000000000000 ) ) ;
#127 = CLOSED_SHELL ( 'NONE', ( #208, #54, #141, #49, #91 ) ) ;
#128 = SECURITY_CLASSIFICATION ( '', '', #56 ) ;
#129 = CARTESIAN_POINT ( 'NONE',  ( 0.0000000000000000000, 0.0000000000000000000, 0.0000000000000000000 ) ) ;
#130 = DIRECTION ( 'NONE',  ( -4.275831445896958607E-31, -1.000000000000000000, -1.224646799147353207E-16 ) ) ;
#131 = CIRCLE ( 'NONE', #31, 0.3349999999999983546 ) ;
#132 =( NAMED_UNIT ( * ) SI_UNIT ( $, .STERADIAN. ) SOLID_ANGLE_UNIT ( ) );
#133 = ORIENTED_EDGE ( 'NONE', *, *, #101, .F. ) ;
#134 = PERSON_AND_ORGANIZATION ( #146, #67 ) ;
#135 = DATE_TIME_ROLE ( 'classification_date' ) ;
#136 = AXIS2_PLACEMENT_3D ( 'NONE', #45, #7, #77 ) ;
#137 = PRODUCT_DEFINITION_FORMATION_WITH_SPECIFIED_SOURCE ( 'ANY', '', #72, .NOT_KNOWN. ) ;
#138 = CC_DESIGN_PERSON_AND_ORGANIZATION_ASSIGNMENT ( #140, #205, ( #4 ) ) ;
#139 = PERSON_AND_ORGANIZATION ( #146, #67 ) ;
#140 = PERSON_AND_ORGANIZATION ( #146, #67 ) ;
#141 = ADVANCED_FACE ( 'NONE', ( #209, #60 ), #24, .T. ) ;
#142 = LOCAL_TIME ( 15, 46, 37.00000000000000000, #57 ) ;
#143 = FACE_BOUND ( 'NONE', #112, .T. ) ;
#144 = EDGE_LOOP ( 'NONE', ( #89 ) ) ;
#145 = DIRECTION ( 'NONE',  ( 4.275831445896958607E-31, 1.000000000000000000, 1.224646799147353207E-16 ) ) ;
#146 = PERSON ( 'UNSPECIFIED', 'UNSPECIFIED', 'UNSPECIFIED', ('UNSPECIFIED'), ('UNSPECIFIED'), ('UNSPECIFIED') ) ;
#147 = FACE_OUTER_BOUND ( 'NONE', #178, .T. ) ;
#148 = EDGE_CURVE ( 'NONE', #11, #11, #131, .T. ) ;
#149 = ORIENTED_EDGE ( 'NONE', *, *, #98, .T. ) ;
#150 = DIRECTION ( 'NONE',  ( -3.491481338843133355E-15, 1.224646799147353207E-16, -1.000000000000000000 ) ) ;
#151 = PLANE ( 'NONE',  #154 ) ;
#152 = MECHANICAL_CONTEXT ( 'NONE', #103, 'mechanical' ) ;
#153 = CARTESIAN_POINT ( 'NONE',  ( 7.027943689244570127E-16, 0.3349999999999976885, 0.2012883073742335605 ) ) ;
#154 = AXIS2_PLACEMENT_3D ( 'NONE', #97, #84, #130 ) ;
#155 = AXIS2_PLACEMENT_3D ( 'NONE', #65, #53, #68 ) ;
#156 = DATE_TIME_ROLE ( 'creation_date' ) ;
#157 = SHAPE_DEFINITION_REPRESENTATION ( #108, #13 ) ;
#158 = CARTESIAN_POINT ( 'NONE',  ( 1.960742034300551129E-14, -6.877357268234629177E-16, 5.615788383248879079 ) ) ;
#159 = APPLICATION_CONTEXT ( 'configuration controlled 3d designs of mechanical parts and assemblies' ) ;
#160 = CC_DESIGN_DATE_AND_TIME_ASSIGNMENT ( #75, #135, ( #128 ) ) ;
#161 = FACE_OUTER_BOUND ( 'NONE', #27, .T. ) ;
#162 =( GEOMETRIC_REPRESENTATION_CONTEXT ( 3 ) GLOBAL_UNCERTAINTY_ASSIGNED_CONTEXT ( ( #2 ) ) GLOBAL_UNIT_ASSIGNED_CONTEXT ( ( #169, #203, #132 ) ) REPRESENTATION_CONTEXT ( 'NONE', 'WORKASPACE' ) );
#163 = ORIENTED_EDGE ( 'NONE', *, *, #9, .T. ) ;
#164 = FACE_BOUND ( 'NONE', #122, .T. ) ;
#165 = DIRECTION ( 'NONE',  ( 0.0000000000000000000, 1.000000000000000000, 0.0000000000000000000 ) ) ;
#166 = DIRECTION ( 'NONE',  ( -3.491481338843133355E-15, 1.224646799147353207E-16, -1.000000000000000000 ) ) ;
#167 = CIRCLE ( 'NONE', #220, 0.5000000000000000000 ) ;
#168 = CC_DESIGN_APPROVAL ( #1, ( #4 ) ) ;
#169 =( LENGTH_UNIT ( ) NAMED_UNIT ( * ) SI_UNIT ( .MILLI., .METRE. ) );
#170 = AXIS2_PLACEMENT_3D ( 'NONE', #80, #114, #96 ) ;
#171 = CARTESIAN_POINT ( 'NONE',  ( 1.745740669421566678E-14, 0.3349999999999977440, 5.000000000000000000 ) ) ;
#172 = COORDINATED_UNIVERSAL_TIME_OFFSET ( 1, 0, .AHEAD. ) ;
#173 = MANIFOLD_SOLID_BREP ( 'Corps-Déplacer/Copier1[1]', #127 ) ;
#174 = CALENDAR_DATE ( 2021, 7, 10 ) ;
#175 = PERSON_AND_ORGANIZATION_ROLE ( 'classification_officer' ) ;
#176 = EDGE_LOOP ( 'NONE', ( #113 ) ) ;
#177 = EDGE_CURVE ( 'NONE', #217, #217, #185, .T. ) ;
#178 = EDGE_LOOP ( 'NONE', ( #163 ) ) ;
#179 = DIRECTION ( 'NONE',  ( 0.0000000000000000000, 1.000000000000000000, 0.0000000000000000000 ) ) ;
#180 = PRODUCT_RELATED_PRODUCT_CATEGORY ( 'detail', '', ( #72 ) ) ;
#181 = CIRCLE ( 'NONE', #119, 0.4999999999999970579 ) ;
#182 = EDGE_LOOP ( 'NONE', ( #110 ) ) ;
#183 = CARTESIAN_POINT ( 'NONE',  ( 1.047444401652940007E-13, -3.673940397442059178E-15, 30.00000000000000000 ) ) ;
#184 = CALENDAR_DATE ( 2021, 7, 10 ) ;
#185 = CIRCLE ( 'NONE', #85, 0.3349999999999976885 ) ;
#186 = LOCAL_TIME ( 15, 46, 37.00000000000000000, #18 ) ;
#187 = DIRECTION ( 'NONE',  ( 3.491481338843133355E-15, -1.224646799147353207E-16, 1.000000000000000000 ) ) ;
#188 = CIRCLE ( 'NONE', #170, 0.3349999999999983546 ) ;
#189 = APPROVAL ( #106, 'UNSPECIFIED' ) ;
#190 = APPROVAL_DATE_TIME ( #76, #189 ) ;
#191 = APPROVAL_ROLE ( '' ) ;
#192 = CC_DESIGN_PERSON_AND_ORGANIZATION_ASSIGNMENT ( #38, #175, ( #128 ) ) ;
#193 = CARTESIAN_POINT ( 'NONE',  ( 1.043952920314096810E-13, -3.661693929450586610E-15, 29.89999999999999858 ) ) ;
#194 = DIRECTION ( 'NONE',  ( -3.491481338843133355E-15, 1.224646799147353207E-16, -1.000000000000000000 ) ) ;
#195 = PLANE ( 'NONE',  #20 ) ;
#196 = EDGE_LOOP ( 'NONE', ( #211 ) ) ;
#197 = DIRECTION ( 'NONE',  ( -4.275831445896958607E-31, -1.000000000000000000, -1.224646799147353207E-16 ) ) ;
#198 = VERTEX_POINT ( 'NONE', #171 ) ;
#199 = APPROVAL_ROLE ( '' ) ;
#200 = CARTESIAN_POINT ( 'NONE',  ( 1.047444401652940007E-13, 0.3999999999999963585, 30.00000000000000000 ) ) ;
#201 = FACE_OUTER_BOUND ( 'NONE', #176, .T. ) ;
#202 = ADVANCED_FACE ( 'NONE', ( #34 ), #50, .T. ) ;
#203 =( NAMED_UNIT ( * ) PLANE_ANGLE_UNIT ( ) SI_UNIT ( $, .RADIAN. ) );
#204 = CIRCLE ( 'NONE', #40, 0.4000000000000000222 ) ;
#205 = PERSON_AND_ORGANIZATION_ROLE ( 'creator' ) ;
#206 = PERSON_AND_ORGANIZATION ( #146, #67 ) ;
#207 = AXIS2_PLACEMENT_3D ( 'NONE', #95, #194, #179 ) ;
#208 = ADVANCED_FACE ( 'NONE', ( #201 ), #151, .F. ) ;
#209 = FACE_OUTER_BOUND ( 'NONE', #8, .T. ) ;
#210 = AXIS2_PLACEMENT_3D ( 'NONE', #129, #83, #14 ) ;
#211 = ORIENTED_EDGE ( 'NONE', *, *, #148, .F. ) ;
#212 = DIRECTION ( 'NONE',  ( -3.491481338843133355E-15, 1.224646799147353207E-16, -1.000000000000000000 ) ) ;
#213 = DIRECTION ( 'NONE',  ( 0.0000000000000000000, -1.000000000000000000, 0.0000000000000000000 ) ) ;
#214 = AXIS2_PLACEMENT_3D ( 'NONE', #64, #126, #197 ) ;
#215 = CARTESIAN_POINT ( 'NONE',  ( 1.960742034300551129E-14, -6.877357268234629177E-16, 5.615788383248879079 ) ) ;
#216 = VERTEX_POINT ( 'NONE', #116 ) ;
#217 = VERTEX_POINT ( 'NONE', #153 ) ;
#218 = CC_DESIGN_PERSON_AND_ORGANIZATION_ASSIGNMENT ( #206, #105, ( #137 ) ) ;
#219 = PERSON_AND_ORGANIZATION ( #146, #67 ) ;
#220 = AXIS2_PLACEMENT_3D ( 'NONE', #193, #111, #22 ) ;
#221 = APPROVAL_STATUS ( 'not_yet_approved' ) ;
#222 = APPROVAL_DATE_TIME ( #73, #29 ) ;
#223 = APPROVAL_DATE_TIME ( #100, #1 ) ;
ENDSEC;
END-ISO-10303-21;
