ISO-10303-21;
HEADER;
FILE_DESCRIPTION (( 'STEP AP203' ),
    '1' );
FILE_NAME ('367568.step',
    '2023-04-03T06:01:22',
    ( '' ),
    ( '' ),
    'SwSTEP 2.0',
    'SolidWorks 2022',
    '' );
FILE_SCHEMA (( 'CONFIG_CONTROL_DESIGN' ));
ENDSEC;

DATA;
#1 = DIRECTION ( 'NONE',  ( -3.491481338843133355E-15, 1.224646799147353207E-16, -1.000000000000000000 ) ) ;
#2 = AXIS2_PLACEMENT_3D ( 'NONE', #60, #58, #104 ) ;
#3 = FACE_OUTER_BOUND ( 'NONE', #127, .T. ) ;
#4 = DIRECTION ( 'NONE',  ( -3.491481338843133355E-15, 1.224646799147353207E-16, -1.000000000000000000 ) ) ;
#5 = DIRECTION ( 'NONE',  ( -3.491481338843133355E-15, 1.224646799147353207E-16, -1.000000000000000000 ) ) ;
#6 = DIRECTION ( 'NONE',  ( 3.491481338843133355E-15, -1.217917285207545432E-16, 1.000000000000000000 ) ) ;
#7 = CYLINDRICAL_SURFACE ( 'NONE', #101, 6.000000000000000000 ) ;
#8 = ORIENTED_EDGE ( 'NONE', *, *, #291, .F. ) ;
#9 = APPLICATION_CONTEXT ( 'configuration controlled 3d designs of mechanical parts and assemblies' ) ;
#10 = CLOSED_SHELL ( 'NONE', ( #328, #177, #18, #348, #345, #51 ) ) ;
#11 = CALENDAR_DATE ( 2023, 3, 4 ) ;
#12 = DIRECTION ( 'NONE',  ( 0.000000000000000000, 1.000000000000000000, 0.000000000000000000 ) ) ;
#13 =( LENGTH_UNIT ( ) NAMED_UNIT ( * ) SI_UNIT ( .MILLI., .METRE. ) );
#14 = ORIENTED_EDGE ( 'NONE', *, *, #158, .F. ) ;
#15 = ORIENTED_EDGE ( 'NONE', *, *, #122, .T. ) ;
#16 = EDGE_CURVE ( 'NONE', #147, #166, #297, .T. ) ;
#17 = DIRECTION ( 'NONE',  ( 0.000000000000000000, 1.000000000000000000, 0.000000000000000000 ) ) ;
#18 = ADVANCED_FACE ( 'NONE', ( #85 ), #252, .T. ) ;
#19 = APPROVAL_PERSON_ORGANIZATION ( #43, #165, #319 ) ;
#20 = VECTOR ( 'NONE', #28, 1000.000000000000000 ) ;
#21 = VERTEX_POINT ( 'NONE', #305 ) ;
#22 = ORIENTED_EDGE ( 'NONE', *, *, #360, .T. ) ;
#23 = DIRECTION ( 'NONE',  ( -3.491481338843133355E-15, 1.224646799147353207E-16, -1.000000000000000000 ) ) ;
#24 = ORIENTED_EDGE ( 'NONE', *, *, #57, .T. ) ;
#25 = DIRECTION ( 'NONE',  ( -3.491481338843133355E-15, 1.224646799147353207E-16, -1.000000000000000000 ) ) ;
#26 = CARTESIAN_POINT ( 'NONE',  ( 4.472745294891187854E-14, -6.000000000000003553, 25.00000000000000000 ) ) ;
#27 = EDGE_CURVE ( 'NONE', #349, #21, #52, .T. ) ;
#28 = DIRECTION ( 'NONE',  ( -2.468850131082265344E-15, 0.7071067811865476838, -0.7071067811865474617 ) ) ;
#29 = DIRECTION ( 'NONE',  ( 3.491481338843133355E-15, -1.217917285207545432E-16, 1.000000000000000000 ) ) ;
#30 = CARTESIAN_POINT ( 'NONE',  ( 8.728703347107833388E-14, -3.061616997868383043E-15, 25.00000000000000000 ) ) ;
#31 = LOCAL_TIME ( 8, 1, 22.00000000000000000, #234 ) ;
#32 = FACE_OUTER_BOUND ( 'NONE', #187, .T. ) ;
#33 = DIRECTION ( 'NONE',  ( -3.491481338843133355E-15, 1.224646799147353207E-16, -1.000000000000000000 ) ) ;
#34 = DIRECTION ( 'NONE',  ( -3.491481338843133355E-15, 1.224646799147353207E-16, -1.000000000000000000 ) ) ;
#35 = CC_DESIGN_PERSON_AND_ORGANIZATION_ASSIGNMENT ( #200, #162, ( #80 ) ) ;
#36 = FACE_OUTER_BOUND ( 'NONE', #274, .T. ) ;
#37 = PRODUCT_DEFINITION_FORMATION_WITH_SPECIFIED_SOURCE ( 'ANY', '', #183, .NOT_KNOWN. ) ;
#38 = CIRCLE ( 'NONE', #47, 5.799999999999998934 ) ;
#39 = PERSON_AND_ORGANIZATION ( #126, #285 ) ;
#40 = COORDINATED_UNIVERSAL_TIME_OFFSET ( 1, 0, .AHEAD. ) ;
#41 = EDGE_LOOP ( 'NONE', ( #93, #67, #241, #232 ) ) ;
#42 = PERSON_AND_ORGANIZATION_ROLE ( 'classification_officer' ) ;
#43 = PERSON_AND_ORGANIZATION ( #126, #285 ) ;
#44 = APPROVAL_STATUS ( 'not_yet_approved' ) ;
#45 = ORIENTED_EDGE ( 'NONE', *, *, #245, .T. ) ;
#46 = ORIENTED_EDGE ( 'NONE', *, *, #134, .T. ) ;
#47 = AXIS2_PLACEMENT_3D ( 'NONE', #140, #6, #339 ) ;
#48 = CARTESIAN_POINT ( 'NONE',  ( 7.347880794884094098E-16, -6.000000000000000000, -7.347880794884144388E-16 ) ) ;
#49 = AXIS2_PLACEMENT_3D ( 'NONE', #100, #23, #103 ) ;
#50 = CARTESIAN_POINT ( 'NONE',  ( 2.880472104545584703E-13, -1.010333609296566392E-14, 82.50000000000000000 ) ) ;
#51 = ADVANCED_FACE ( 'NONE', ( #108 ), #308, .T. ) ;
#52 = LINE ( 'NONE', #145, #136 ) ;
#53 = FACE_OUTER_BOUND ( 'NONE', #133, .T. ) ;
#54 = EDGE_CURVE ( 'NONE', #76, #329, #105, .T. ) ;
#55 = CARTESIAN_POINT ( 'NONE',  ( 6.982962677686255864E-16, -2.435834570415086921E-17, 0.1999999999999996780 ) ) ;
#56 = VERTEX_POINT ( 'NONE', #175 ) ;
#57 = EDGE_CURVE ( 'NONE', #329, #119, #197, .T. ) ;
#58 = DIRECTION ( 'NONE',  ( -3.491481338843133355E-15, 1.224646799147353207E-16, -1.000000000000000000 ) ) ;
#59 = ORIENTED_EDGE ( 'NONE', *, *, #158, .T. ) ;
#60 = CARTESIAN_POINT ( 'NONE',  ( 2.897929511239800811E-13, -1.016456843292303150E-14, 83.00000000000000000 ) ) ;
#61 = ADVANCED_BREP_SHAPE_REPRESENTATION ( '367568', ( #191, #315, #121 ), #221 ) ;
#62 = CARTESIAN_POINT ( 'NONE',  ( 1.071689745381254812E-15, 5.799999999999998934, -3.755563391555109913E-30 ) ) ;
#63 = ORIENTED_EDGE ( 'NONE', *, *, #257, .F. ) ;
#64 = CC_DESIGN_SECURITY_CLASSIFICATION ( #251, ( #37 ) ) ;
#65 = AXIS2_PLACEMENT_3D ( 'NONE', #169, #276, #138 ) ;
#66 = CARTESIAN_POINT ( 'NONE',  ( 0.000000000000000000, 0.000000000000000000, 0.000000000000000000 ) ) ;
#67 = ORIENTED_EDGE ( 'NONE', *, *, #206, .T. ) ;
#68 = CALENDAR_DATE ( 2023, 3, 4 ) ;
#69 = EDGE_CURVE ( 'NONE', #333, #21, #222, .T. ) ;
#70 = DATE_AND_TIME ( #351, #239 ) ;
#71 = APPLICATION_CONTEXT ( 'configuration controlled 3d designs of mechanical parts and assemblies' ) ;
#72 = CIRCLE ( 'NONE', #202, 6.000000000000000000 ) ;
#73 = EDGE_LOOP ( 'NONE', ( #230, #59, #131, #63 ) ) ;
#74 = APPLICATION_PROTOCOL_DEFINITION ( 'international standard', 'config_control_design', 1994, #9 ) ;
#75 = ORIENTED_EDGE ( 'NONE', *, *, #236, .F. ) ;
#76 = VERTEX_POINT ( 'NONE', #26 ) ;
#77 = DIRECTION ( 'NONE',  ( -3.491481338843133355E-15, 1.224646799147353207E-16, -1.000000000000000000 ) ) ;
#78 = CIRCLE ( 'NONE', #2, 5.500000000000000000 ) ;
#79 = AXIS2_PLACEMENT_3D ( 'NONE', #116, #157, #17 ) ;
#80 = PRODUCT_DEFINITION ( 'UNKNOWN', '', #37, #161 ) ;
#81 = LINE ( 'NONE', #190, #302 ) ;
#82 = DIRECTION ( 'NONE',  ( 4.275831445896959482E-31, 1.000000000000000000, 1.224646799147353207E-16 ) ) ;
#83 = DIRECTION ( 'NONE',  ( 3.491481338843133355E-15, -1.217917285207545432E-16, 1.000000000000000000 ) ) ;
#84 = CC_DESIGN_DATE_AND_TIME_ASSIGNMENT ( #70, #91, ( #251 ) ) ;
#85 = FACE_OUTER_BOUND ( 'NONE', #41, .T. ) ;
#86 = CARTESIAN_POINT ( 'NONE',  ( 0.000000000000000000, 0.000000000000000000, 0.000000000000000000 ) ) ;
#87 = DIRECTION ( 'NONE',  ( 4.275831445896958607E-31, 1.000000000000000000, 1.224646799147353207E-16 ) ) ;
#88 = CARTESIAN_POINT ( 'NONE',  ( 2.887819985340468811E-13, -6.000000000000010658, 82.50000000000000000 ) ) ;
#89 = DATE_AND_TIME ( #289, #332 ) ;
#90 = EDGE_CURVE ( 'NONE', #115, #56, #246, .T. ) ;
#91 = DATE_TIME_ROLE ( 'classification_date' ) ;
#92 = COORDINATED_UNIVERSAL_TIME_OFFSET ( 1, 0, .AHEAD. ) ;
#93 = ORIENTED_EDGE ( 'NONE', *, *, #54, .F. ) ;
#94 = PERSON_AND_ORGANIZATION_ROLE ( 'design_supplier' ) ;
#95 = ORIENTED_EDGE ( 'NONE', *, *, #206, .F. ) ;
#96 = APPROVAL_DATE_TIME ( #120, #317 ) ;
#97 = CIRCLE ( 'NONE', #304, 6.000000000000000000 ) ;
#98 = SHAPE_DEFINITION_REPRESENTATION ( #210, #61 ) ;
#99 = EDGE_CURVE ( 'NONE', #270, #119, #139, .T. ) ;
#100 = CARTESIAN_POINT ( 'NONE',  ( 0.000000000000000000, 0.000000000000000000, 0.000000000000000000 ) ) ;
#101 = AXIS2_PLACEMENT_3D ( 'NONE', #86, #33, #82 ) ;
#102 = ORIENTED_EDGE ( 'NONE', *, *, #69, .T. ) ;
#103 = DIRECTION ( 'NONE',  ( 4.275831445896959482E-31, 1.000000000000000000, 1.224646799147353207E-16 ) ) ;
#104 = DIRECTION ( 'NONE',  ( 0.000000000000000000, 1.000000000000000000, 0.000000000000000000 ) ) ;
#105 = LINE ( 'NONE', #48, #334 ) ;
#106 = AXIS2_PLACEMENT_3D ( 'NONE', #148, #192, #168 ) ;
#107 = DIRECTION ( 'NONE',  ( -3.491481338843133355E-15, 1.224646799147353207E-16, -1.000000000000000000 ) ) ;
#108 = FACE_OUTER_BOUND ( 'NONE', #163, .T. ) ;
#109 = DIRECTION ( 'NONE',  ( -3.491481338843133355E-15, 1.224646799147353207E-16, -1.000000000000000000 ) ) ;
#110 = CC_DESIGN_DATE_AND_TIME_ASSIGNMENT ( #204, #117, ( #80 ) ) ;
#111 = DIRECTION ( 'NONE',  ( 0.000000000000000000, 1.000000000000000000, 0.000000000000000000 ) ) ;
#112 = ORIENTED_EDGE ( 'NONE', *, *, #284, .F. ) ;
#113 = CONICAL_SURFACE ( 'NONE', #240, 6.000000000000000000, 0.7853981633974482790 ) ;
#114 = CARTESIAN_POINT ( 'NONE',  ( 1.433084347257040124E-15, 6.000000000000000000, 0.2000000000000004274 ) ) ;
#115 = VERTEX_POINT ( 'NONE', #171 ) ;
#116 = CARTESIAN_POINT ( 'NONE',  ( 2.897929511239800811E-13, -1.016456843292303150E-14, 83.00000000000000000 ) ) ;
#117 = DATE_TIME_ROLE ( 'creation_date' ) ;
#118 = CARTESIAN_POINT ( 'NONE',  ( -4.932709149325695484E-30, -5.799999999999998934, -1.412784050840752485E-15 ) ) ;
#119 = VERTEX_POINT ( 'NONE', #279 ) ;
#120 = DATE_AND_TIME ( #68, #31 ) ;
#121 = AXIS2_PLACEMENT_3D ( 'NONE', #66, #125, #322 ) ;
#122 = EDGE_CURVE ( 'NONE', #270, #76, #318, .T. ) ;
#123 = AXIS2_PLACEMENT_3D ( 'NONE', #301, #188, #311 ) ;
#124 = COORDINATED_UNIVERSAL_TIME_OFFSET ( 1, 0, .AHEAD. ) ;
#125 = DIRECTION ( 'NONE',  ( 0.000000000000000000, 0.000000000000000000, 1.000000000000000000 ) ) ;
#126 = PERSON ( 'UNSPECIFIED', 'UNSPECIFIED', 'UNSPECIFIED', ('UNSPECIFIED'), ('UNSPECIFIED'), ('UNSPECIFIED') ) ;
#127 = EDGE_LOOP ( 'NONE', ( #290, #324 ) ) ;
#128 = ORIENTED_EDGE ( 'NONE', *, *, #360, .F. ) ;
#129 = CC_DESIGN_APPROVAL ( #214, ( #37 ) ) ;
#130 = CIRCLE ( 'NONE', #167, 6.000000000000000000 ) ;
#131 = ORIENTED_EDGE ( 'NONE', *, *, #331, .T. ) ;
#132 = EDGE_LOOP ( 'NONE', ( #45, #243, #244, #128 ) ) ;
#133 = EDGE_LOOP ( 'NONE', ( #112, #237, #22, #75 ) ) ;
#134 = EDGE_CURVE ( 'NONE', #160, #115, #337, .T. ) ;
#135 = LOCAL_TIME ( 8, 1, 22.00000000000000000, #40 ) ;
#136 = VECTOR ( 'NONE', #4, 1000.000000000000000 ) ;
#137 = ORIENTED_EDGE ( 'NONE', *, *, #90, .T. ) ;
#138 = DIRECTION ( 'NONE',  ( -4.172848212839010723E-31, -1.000000000000000000, -1.219727444046192488E-16 ) ) ;
#139 = LINE ( 'NONE', #249, #287 ) ;
#140 = CARTESIAN_POINT ( 'NONE',  ( -2.466354574662847742E-30, 8.603270578922440071E-32, -7.063920254203762423E-16 ) ) ;
#141 = CC_DESIGN_APPROVAL ( #165, ( #251 ) ) ;
#142 = EDGE_CURVE ( 'NONE', #160, #349, #321, .T. ) ;
#143 = FACE_OUTER_BOUND ( 'NONE', #209, .T. ) ;
#144 = AXIS2_PLACEMENT_3D ( 'NONE', #299, #343, #217 ) ;
#145 = CARTESIAN_POINT ( 'NONE',  ( 7.347880794884094098E-16, -6.000000000000000000, -7.347880794884144388E-16 ) ) ;
#146 = FACE_OUTER_BOUND ( 'NONE', #265, .T. ) ;
#147 = VERTEX_POINT ( 'NONE', #62 ) ;
#148 = CARTESIAN_POINT ( 'NONE',  ( 8.728703347107833388E-14, -3.061616997868383043E-15, 25.00000000000000000 ) ) ;
#149 = PLANE ( 'NONE',  #335 ) ;
#150 = EDGE_LOOP ( 'NONE', ( #300, #294, #8, #213 ) ) ;
#151 = CC_DESIGN_APPROVAL ( #317, ( #80 ) ) ;
#152 = CARTESIAN_POINT ( 'NONE',  ( 2.565498867538175514E-30, 6.000000000000000000, 7.347880794884119736E-16 ) ) ;
#153 = CONICAL_SURFACE ( 'NONE', #357, 6.000000000000000000, 0.7853981633974482790 ) ;
#154 = CC_DESIGN_PERSON_AND_ORGANIZATION_ASSIGNMENT ( #182, #42, ( #251 ) ) ;
#155 = PERSON_AND_ORGANIZATION ( #126, #285 ) ;
#156 = CALENDAR_DATE ( 2023, 3, 4 ) ;
#157 = DIRECTION ( 'NONE',  ( -3.491481338843133355E-15, 1.224646799147353207E-16, -1.000000000000000000 ) ) ;
#158 = EDGE_CURVE ( 'NONE', #349, #56, #130, .T. ) ;
#159 = APPROVAL_STATUS ( 'not_yet_approved' ) ;
#160 = VERTEX_POINT ( 'NONE', #203 ) ;
#161 = DESIGN_CONTEXT ( 'detailed design', #9, 'design' ) ;
#162 = PERSON_AND_ORGANIZATION_ROLE ( 'creator' ) ;
#163 = EDGE_LOOP ( 'NONE', ( #184, #295 ) ) ;
#164 = CARTESIAN_POINT ( 'NONE',  ( 8.728703347107833388E-14, -3.061616997868383043E-15, 25.00000000000000000 ) ) ;
#165 = APPROVAL ( #159, 'UNSPECIFIED' ) ;
#166 = VERTEX_POINT ( 'NONE', #118 ) ;
#167 = AXIS2_PLACEMENT_3D ( 'NONE', #286, #263, #12 ) ;
#168 = DIRECTION ( 'NONE',  ( 0.000000000000000000, 1.000000000000000000, 0.000000000000000000 ) ) ;
#169 = CARTESIAN_POINT ( 'NONE',  ( 6.982962677686255864E-16, -2.435834570415086921E-17, 0.1999999999999996780 ) ) ;
#170 = CYLINDRICAL_SURFACE ( 'NONE', #272, 6.000000000000000000 ) ;
#171 = CARTESIAN_POINT ( 'NONE',  ( 2.897929511239800811E-13, 5.499999999999989342, 83.00000000000000000 ) ) ;
#172 = CARTESIAN_POINT ( 'NONE',  ( 8.728703347107833388E-14, 5.999999999999996447, 25.00000000000000000 ) ) ;
#173 = DIRECTION ( 'NONE',  ( 4.275831445896959482E-31, 1.000000000000000000, 1.224646799147353207E-16 ) ) ;
#174 = DIRECTION ( 'NONE',  ( 4.275831445896959482E-31, 1.000000000000000000, 1.224646799147353207E-16 ) ) ;
#175 = CARTESIAN_POINT ( 'NONE',  ( 2.880472104545584703E-13, 5.999999999999989342, 82.50000000000000000 ) ) ;
#176 = FACE_OUTER_BOUND ( 'NONE', #132, .T. ) ;
#177 = ADVANCED_FACE ( 'NONE', ( #233 ), #350, .T. ) ;
#178 = DIRECTION ( 'NONE',  ( 3.491481338843133355E-15, -1.224646799147353207E-16, 1.000000000000000000 ) ) ;
#179 = AXIS2_PLACEMENT_3D ( 'NONE', #278, #5, #87 ) ;
#180 = APPROVAL_ROLE ( '' ) ;
#181 = PERSON_AND_ORGANIZATION ( #126, #285 ) ;
#182 = PERSON_AND_ORGANIZATION ( #126, #285 ) ;
#183 = PRODUCT ( '367568', '367568', '', ( #293 ) ) ;
#184 = ORIENTED_EDGE ( 'NONE', *, *, #245, .F. ) ;
#185 =( NAMED_UNIT ( * ) SI_UNIT ( $, .STERADIAN. ) SOLID_ANGLE_UNIT ( ) );
#186 = APPROVAL_PERSON_ORGANIZATION ( #181, #317, #180 ) ;
#187 = EDGE_LOOP ( 'NONE', ( #102, #201 ) ) ;
#188 = DIRECTION ( 'NONE',  ( -3.491481338843133355E-15, 1.224646799147353207E-16, -1.000000000000000000 ) ) ;
#189 = LOCAL_TIME ( 8, 1, 22.00000000000000000, #353 ) ;
#190 = CARTESIAN_POINT ( 'NONE',  ( 6.982962677686231212E-16, -6.000000000000000000, 0.1999999999999989564 ) ) ;
#191 = MANIFOLD_SOLID_BREP ( 'Corps-Déplacer/Copier1[1]', #320 ) ;
#192 = DIRECTION ( 'NONE',  ( -3.491481338843133355E-15, 1.224646799147353207E-16, -1.000000000000000000 ) ) ;
#193 = LINE ( 'NONE', #152, #352 ) ;
#194 = CIRCLE ( 'NONE', #259, 6.000000000000000000 ) ;
#195 = DIRECTION ( 'NONE',  ( -3.491481338843133355E-15, 1.224646799147353207E-16, -1.000000000000000000 ) ) ;
#196 = DIRECTION ( 'NONE',  ( 2.555445736705808879E-15, 0.7071067811865491270, 0.7071067811865459074 ) ) ;
#197 = CIRCLE ( 'NONE', #260, 6.000000000000000000 ) ;
#198 = DIRECTION ( 'NONE',  ( 3.491481338843133355E-15, -1.224646799147353207E-16, 1.000000000000000000 ) ) ;
#199 = DIRECTION ( 'NONE',  ( -2.382254525458716681E-15, -0.7071067811865474617, -0.7071067811865476838 ) ) ;
#200 = PERSON_AND_ORGANIZATION ( #126, #285 ) ;
#201 = ORIENTED_EDGE ( 'NONE', *, *, #257, .T. ) ;
#202 = AXIS2_PLACEMENT_3D ( 'NONE', #282, #34, #229 ) ;
#203 = CARTESIAN_POINT ( 'NONE',  ( 2.896242526987789965E-13, -5.500000000000009770, 83.00000000000000000 ) ) ;
#204 = DATE_AND_TIME ( #11, #189 ) ;
#205 = EDGE_LOOP ( 'NONE', ( #15, #330, #24, #271 ) ) ;
#206 = EDGE_CURVE ( 'NONE', #76, #270, #97, .T. ) ;
#207 = DIRECTION ( 'NONE',  ( 0.000000000000000000, 1.000000000000000000, 0.000000000000000000 ) ) ;
#208 = APPROVAL_STATUS ( 'not_yet_approved' ) ;
#209 = EDGE_LOOP ( 'NONE', ( #327, #95 ) ) ;
#210 = PRODUCT_DEFINITION_SHAPE ( 'NONE', 'NONE',  #80 ) ;
#211 = VECTOR ( 'NONE', #199, 1000.000000000000000 ) ;
#212 = DATE_AND_TIME ( #156, #135 ) ;
#213 = ORIENTED_EDGE ( 'NONE', *, *, #90, .F. ) ;
#214 = APPROVAL ( #208, 'UNSPECIFIED' ) ;
#215 = CONICAL_SURFACE ( 'NONE', #296, 6.000000000000000000, 0.7853981633974508325 ) ;
#216 = FACE_OUTER_BOUND ( 'NONE', #150, .T. ) ;
#217 = DIRECTION ( 'NONE',  ( -4.252335473556634944E-31, -1.000000000000000000, -1.217917285207545432E-16 ) ) ;
#218 = CARTESIAN_POINT ( 'NONE',  ( 0.000000000000000000, 0.000000000000000000, 0.000000000000000000 ) ) ;
#219 = ADVANCED_FACE ( 'NONE', ( #216 ), #153, .T. ) ;
#220 = PLANE ( 'NONE',  #179 ) ;
#221 =( GEOMETRIC_REPRESENTATION_CONTEXT ( 3 ) GLOBAL_UNCERTAINTY_ASSIGNED_CONTEXT ( ( #266 ) ) GLOBAL_UNIT_ASSIGNED_CONTEXT ( ( #13, #235, #185 ) ) REPRESENTATION_CONTEXT ( 'NONE', 'WORKASPACE' ) );
#222 = CIRCLE ( 'NONE', #106, 6.000000000000000000 ) ;
#223 = DIRECTION ( 'NONE',  ( -3.491481338843133355E-15, 1.224646799147353207E-16, -1.000000000000000000 ) ) ;
#224 = CARTESIAN_POINT ( 'NONE',  ( 0.000000000000000000, 0.000000000000000000, 0.000000000000000000 ) ) ;
#225 = DIRECTION ( 'NONE',  ( -4.172848212839010723E-31, -1.000000000000000000, -1.219727444046192488E-16 ) ) ;
#226 = ORIENTED_EDGE ( 'NONE', *, *, #27, .T. ) ;
#227 = CC_DESIGN_PERSON_AND_ORGANIZATION_ASSIGNMENT ( #155, #94, ( #37 ) ) ;
#228 = CONICAL_SURFACE ( 'NONE', #361, 6.000000000000000000, 0.7853981633974508325 ) ;
#229 = DIRECTION ( 'NONE',  ( 0.000000000000000000, 1.000000000000000000, 0.000000000000000000 ) ) ;
#230 = ORIENTED_EDGE ( 'NONE', *, *, #27, .F. ) ;
#231 = PERSON_AND_ORGANIZATION ( #126, #285 ) ;
#232 = ORIENTED_EDGE ( 'NONE', *, *, #236, .T. ) ;
#233 = FACE_OUTER_BOUND ( 'NONE', #205, .T. ) ;
#234 = COORDINATED_UNIVERSAL_TIME_OFFSET ( 1, 0, .AHEAD. ) ;
#235 =( NAMED_UNIT ( * ) PLANE_ANGLE_UNIT ( ) SI_UNIT ( $, .RADIAN. ) );
#236 = EDGE_CURVE ( 'NONE', #119, #329, #242, .T. ) ;
#237 = ORIENTED_EDGE ( 'NONE', *, *, #16, .T. ) ;
#238 = ADVANCED_FACE ( 'NONE', ( #247 ), #170, .T. ) ;
#239 = LOCAL_TIME ( 8, 1, 22.00000000000000000, #124 ) ;
#240 = AXIS2_PLACEMENT_3D ( 'NONE', #250, #107, #346 ) ;
#241 = ORIENTED_EDGE ( 'NONE', *, *, #99, .T. ) ;
#242 = CIRCLE ( 'NONE', #65, 6.000000000000000000 ) ;
#243 = ORIENTED_EDGE ( 'NONE', *, *, #284, .T. ) ;
#244 = ORIENTED_EDGE ( 'NONE', *, *, #57, .F. ) ;
#245 = EDGE_CURVE ( 'NONE', #166, #147, #38, .T. ) ;
#246 = LINE ( 'NONE', #363, #20 ) ;
#247 = FACE_OUTER_BOUND ( 'NONE', #73, .T. ) ;
#248 = PRODUCT_RELATED_PRODUCT_CATEGORY ( 'detail', '', ( #183 ) ) ;
#249 = CARTESIAN_POINT ( 'NONE',  ( 2.565498867538175514E-30, 6.000000000000000000, 7.347880794884119736E-16 ) ) ;
#250 = CARTESIAN_POINT ( 'NONE',  ( 2.880472104545584703E-13, -1.010333609296566392E-14, 82.50000000000000000 ) ) ;
#251 = SECURITY_CLASSIFICATION ( '', '', #264 ) ;
#252 = CYLINDRICAL_SURFACE ( 'NONE', #354, 6.000000000000000000 ) ;
#253 = CARTESIAN_POINT ( 'NONE',  ( 1.884019100423067814E-13, -6.000000000000011546, 82.50000000000000000 ) ) ;
#254 = DIRECTION ( 'NONE',  ( -3.491481338843133355E-15, 1.224646799147353207E-16, -1.000000000000000000 ) ) ;
#255 = LINE ( 'NONE', #114, #310 ) ;
#256 = ORIENTED_EDGE ( 'NONE', *, *, #142, .F. ) ;
#257 = EDGE_CURVE ( 'NONE', #21, #333, #194, .T. ) ;
#258 = CARTESIAN_POINT ( 'NONE',  ( 4.472745294891189117E-14, -6.000000000000000000, 0.1999999999999989564 ) ) ;
#259 = AXIS2_PLACEMENT_3D ( 'NONE', #309, #109, #111 ) ;
#260 = AXIS2_PLACEMENT_3D ( 'NONE', #338, #83, #341 ) ;
#261 = DIRECTION ( 'NONE',  ( 3.491481338843133355E-15, -1.217917285207545432E-16, 1.000000000000000000 ) ) ;
#262 = EDGE_CURVE ( 'NONE', #115, #160, #78, .T. ) ;
#263 = DIRECTION ( 'NONE',  ( -3.491481338843133355E-15, 1.224646799147353207E-16, -1.000000000000000000 ) ) ;
#264 = SECURITY_CLASSIFICATION_LEVEL ( 'unclassified' ) ;
#265 = EDGE_LOOP ( 'NONE', ( #256, #46, #137, #14 ) ) ;
#266 = UNCERTAINTY_MEASURE_WITH_UNIT (LENGTH_MEASURE( 1.000000000000000082E-05 ), #13, 'distance_accuracy_value', 'NONE');
#267 = APPLICATION_PROTOCOL_DEFINITION ( 'international standard', 'config_control_design', 1994, #71 ) ;
#268 = PERSON_AND_ORGANIZATION_ROLE ( 'creator' ) ;
#269 = APPROVAL_DATE_TIME ( #212, #165 ) ;
#270 = VERTEX_POINT ( 'NONE', #172 ) ;
#271 = ORIENTED_EDGE ( 'NONE', *, *, #99, .F. ) ;
#272 = AXIS2_PLACEMENT_3D ( 'NONE', #224, #223, #174 ) ;
#273 = ADVANCED_FACE ( 'NONE', ( #36 ), #7, .T. ) ;
#274 = EDGE_LOOP ( 'NONE', ( #359, #226, #358, #347 ) ) ;
#275 = ADVANCED_FACE ( 'NONE', ( #146 ), #113, .T. ) ;
#276 = DIRECTION ( 'NONE',  ( 3.491481338843133355E-15, -1.217917285207545432E-16, 1.000000000000000000 ) ) ;
#277 = CC_DESIGN_PERSON_AND_ORGANIZATION_ASSIGNMENT ( #356, #326, ( #183 ) ) ;
#278 = CARTESIAN_POINT ( 'NONE',  ( 2.897929511239800811E-13, 4.124339402320093095E-32, 83.00000000000000000 ) ) ;
#279 = CARTESIAN_POINT ( 'NONE',  ( 4.399266486942349290E-14, 6.000000000000000000, 0.2000000000000004274 ) ) ;
#280 = DIRECTION ( 'NONE',  ( -4.172848212839010723E-31, -1.000000000000000000, -1.219727444046192488E-16 ) ) ;
#281 = DIRECTION ( 'NONE',  ( -3.491481338843133355E-15, 1.224646799147353207E-16, -1.000000000000000000 ) ) ;
#282 = CARTESIAN_POINT ( 'NONE',  ( 2.880472104545584703E-13, -1.010333609296566392E-14, 82.50000000000000000 ) ) ;
#283 = DIRECTION ( 'NONE',  ( -4.275831445896958607E-31, -1.000000000000000000, -1.224646799147353207E-16 ) ) ;
#284 = EDGE_CURVE ( 'NONE', #147, #119, #255, .T. ) ;
#285 = ORGANIZATION ( 'UNSPECIFIED', 'UNSPECIFIED', '' ) ;
#286 = CARTESIAN_POINT ( 'NONE',  ( 2.880472104545584703E-13, -1.010333609296566392E-14, 82.50000000000000000 ) ) ;
#287 = VECTOR ( 'NONE', #1, 1000.000000000000000 ) ;
#288 = APPROVAL_DATE_TIME ( #89, #214 ) ;
#289 = CALENDAR_DATE ( 2023, 3, 4 ) ;
#290 = ORIENTED_EDGE ( 'NONE', *, *, #262, .F. ) ;
#291 = EDGE_CURVE ( 'NONE', #56, #349, #72, .T. ) ;
#292 = APPROVAL_PERSON_ORGANIZATION ( #231, #214, #355 ) ;
#293 = MECHANICAL_CONTEXT ( 'NONE', #71, 'mechanical' ) ;
#294 = ORIENTED_EDGE ( 'NONE', *, *, #142, .T. ) ;
#295 = ORIENTED_EDGE ( 'NONE', *, *, #16, .F. ) ;
#296 = AXIS2_PLACEMENT_3D ( 'NONE', #344, #29, #280 ) ;
#297 = CIRCLE ( 'NONE', #144, 5.799999999999998934 ) ;
#298 = CC_DESIGN_PERSON_AND_ORGANIZATION_ASSIGNMENT ( #39, #268, ( #37 ) ) ;
#299 = CARTESIAN_POINT ( 'NONE',  ( -2.466354574662847742E-30, 8.603270578922440071E-32, -7.063920254203762423E-16 ) ) ;
#300 = ORIENTED_EDGE ( 'NONE', *, *, #262, .T. ) ;
#301 = CARTESIAN_POINT ( 'NONE',  ( -1.282749433769087757E-30, 4.499279347985572824E-32, -3.673940397442059868E-16 ) ) ;
#302 = VECTOR ( 'NONE', #306, 1000.000000000000114 ) ;
#303 = DIRECTION ( 'NONE',  ( 0.000000000000000000, 1.000000000000000000, 0.000000000000000000 ) ) ;
#304 = AXIS2_PLACEMENT_3D ( 'NONE', #164, #25, #362 ) ;
#305 = CARTESIAN_POINT ( 'NONE',  ( 1.884019100423068319E-13, -6.000000000000003553, 25.00000000000000000 ) ) ;
#306 = DIRECTION ( 'NONE',  ( 2.468850131082258638E-15, -0.7071067811865493491, 0.7071067811865456854 ) ) ;
#307 = PLANE ( 'NONE',  #323 ) ;
#308 = PLANE ( 'NONE',  #123 ) ;
#309 = CARTESIAN_POINT ( 'NONE',  ( 8.728703347107833388E-14, -3.061616997868383043E-15, 25.00000000000000000 ) ) ;
#310 = VECTOR ( 'NONE', #196, 1000.000000000000114 ) ;
#311 = DIRECTION ( 'NONE',  ( 4.275831445896958607E-31, 1.000000000000000000, 1.224646799147353207E-16 ) ) ;
#312 = DIRECTION ( 'NONE',  ( -4.275831445896958607E-31, -1.000000000000000000, -1.224646799147353207E-16 ) ) ;
#313 = CARTESIAN_POINT ( 'NONE',  ( 8.728703347107833388E-14, 4.499279347985567350E-32, 25.00000000000000000 ) ) ;
#314 = ADVANCED_FACE ( 'NONE', ( #3 ), #220, .F. ) ;
#315 = MANIFOLD_SOLID_BREP ( 'Corps-Déplacer/Copier1[2]', #10 ) ;
#316 = DIRECTION ( 'NONE',  ( -3.491481338843133355E-15, 1.224646799147353207E-16, -1.000000000000000000 ) ) ;
#317 = APPROVAL ( #44, 'UNSPECIFIED' ) ;
#318 = CIRCLE ( 'NONE', #325, 6.000000000000000000 ) ;
#319 = APPROVAL_ROLE ( '' ) ;
#320 = CLOSED_SHELL ( 'NONE', ( #219, #273, #340, #238, #275, #314 ) ) ;
#321 = LINE ( 'NONE', #88, #211 ) ;
#322 = DIRECTION ( 'NONE',  ( 1.000000000000000000, 0.000000000000000000, 0.000000000000000000 ) ) ;
#323 = AXIS2_PLACEMENT_3D ( 'NONE', #342, #198, #283 ) ;
#324 = ORIENTED_EDGE ( 'NONE', *, *, #134, .F. ) ;
#325 = AXIS2_PLACEMENT_3D ( 'NONE', #30, #316, #207 ) ;
#326 = PERSON_AND_ORGANIZATION_ROLE ( 'design_owner' ) ;
#327 = ORIENTED_EDGE ( 'NONE', *, *, #122, .F. ) ;
#328 = ADVANCED_FACE ( 'NONE', ( #176 ), #228, .T. ) ;
#329 = VERTEX_POINT ( 'NONE', #258 ) ;
#330 = ORIENTED_EDGE ( 'NONE', *, *, #54, .T. ) ;
#331 = EDGE_CURVE ( 'NONE', #56, #333, #193, .T. ) ;
#332 = LOCAL_TIME ( 8, 1, 22.00000000000000000, #92 ) ;
#333 = VERTEX_POINT ( 'NONE', #336 ) ;
#334 = VECTOR ( 'NONE', #254, 1000.000000000000000 ) ;
#335 = AXIS2_PLACEMENT_3D ( 'NONE', #313, #178, #312 ) ;
#336 = CARTESIAN_POINT ( 'NONE',  ( 8.728703347107833388E-14, 5.999999999999996447, 25.00000000000000000 ) ) ;
#337 = CIRCLE ( 'NONE', #79, 5.500000000000000000 ) ;
#338 = CARTESIAN_POINT ( 'NONE',  ( 6.982962677686255864E-16, -2.435834570415086921E-17, 0.1999999999999996780 ) ) ;
#339 = DIRECTION ( 'NONE',  ( -4.252335473556634944E-31, -1.000000000000000000, -1.217917285207545432E-16 ) ) ;
#340 = ADVANCED_FACE ( 'NONE', ( #32 ), #307, .F. ) ;
#341 = DIRECTION ( 'NONE',  ( -4.172848212839010723E-31, -1.000000000000000000, -1.219727444046192488E-16 ) ) ;
#342 = CARTESIAN_POINT ( 'NONE',  ( 8.728703347107833388E-14, 4.499279347985567350E-32, 25.00000000000000000 ) ) ;
#343 = DIRECTION ( 'NONE',  ( 3.491481338843133355E-15, -1.217917285207545432E-16, 1.000000000000000000 ) ) ;
#344 = CARTESIAN_POINT ( 'NONE',  ( 6.982962677686255864E-16, -2.435834570415086921E-17, 0.1999999999999996780 ) ) ;
#345 = ADVANCED_FACE ( 'NONE', ( #53 ), #215, .T. ) ;
#346 = DIRECTION ( 'NONE',  ( 0.000000000000000000, 1.000000000000000000, 0.000000000000000000 ) ) ;
#347 = ORIENTED_EDGE ( 'NONE', *, *, #331, .F. ) ;
#348 = ADVANCED_FACE ( 'NONE', ( #143 ), #149, .T. ) ;
#349 = VERTEX_POINT ( 'NONE', #253 ) ;
#350 = CYLINDRICAL_SURFACE ( 'NONE', #49, 6.000000000000000000 ) ;
#351 = CALENDAR_DATE ( 2023, 3, 4 ) ;
#352 = VECTOR ( 'NONE', #281, 1000.000000000000000 ) ;
#353 = COORDINATED_UNIVERSAL_TIME_OFFSET ( 1, 0, .AHEAD. ) ;
#354 = AXIS2_PLACEMENT_3D ( 'NONE', #218, #195, #173 ) ;
#355 = APPROVAL_ROLE ( '' ) ;
#356 = PERSON_AND_ORGANIZATION ( #126, #285 ) ;
#357 = AXIS2_PLACEMENT_3D ( 'NONE', #50, #77, #303 ) ;
#358 = ORIENTED_EDGE ( 'NONE', *, *, #69, .F. ) ;
#359 = ORIENTED_EDGE ( 'NONE', *, *, #291, .T. ) ;
#360 = EDGE_CURVE ( 'NONE', #166, #329, #81, .T. ) ;
#361 = AXIS2_PLACEMENT_3D ( 'NONE', #55, #261, #225 ) ;
#362 = DIRECTION ( 'NONE',  ( 0.000000000000000000, 1.000000000000000000, 0.000000000000000000 ) ) ;
#363 = CARTESIAN_POINT ( 'NONE',  ( 2.880472104545584703E-13, 5.999999999999989342, 82.50000000000000000 ) ) ;
ENDSEC;
END-ISO-10303-21;
