ISO-10303-21;
HEADER;
FILE_DESCRIPTION (( 'STEP AP203' ),
    '1' );
FILE_NAME ('367656.step',
    '2023-04-03T06:01:24',
    ( '' ),
    ( '' ),
    'SwSTEP 2.0',
    'SolidWorks 2022',
    '' );
FILE_SCHEMA (( 'CONFIG_CONTROL_DESIGN' ));
ENDSEC;

DATA;
#1 = AXIS2_PLACEMENT_3D ( 'NONE', #131, #76, #24 ) ;
#2 = DIRECTION ( 'NONE',  ( -3.491481338843133355E-15, 1.224646799147353207E-16, -1.000000000000000000 ) ) ;
#3 = AXIS2_PLACEMENT_3D ( 'NONE', #281, #258, #77 ) ;
#4 = DIRECTION ( 'NONE',  ( 3.491481338843133355E-15, -1.217917285207545432E-16, 1.000000000000000000 ) ) ;
#5 = VERTEX_POINT ( 'NONE', #293 ) ;
#6 = CC_DESIGN_PERSON_AND_ORGANIZATION_ASSIGNMENT ( #155, #67, ( #81 ) ) ;
#7 = PERSON_AND_ORGANIZATION_ROLE ( 'classification_officer' ) ;
#8 = CARTESIAN_POINT ( 'NONE',  ( 2.502532391268577422E-13, -5.000000000000007994, 71.50000000000000000 ) ) ;
#9 = ORIENTED_EDGE ( 'NONE', *, *, #217, .F. ) ;
#10 = APPROVAL_DATE_TIME ( #71, #246 ) ;
#11 = LINE ( 'NONE', #8, #193 ) ;
#12 = ADVANCED_BREP_SHAPE_REPRESENTATION ( '367656', ( #16, #17, #40 ), #265 ) ;
#13 = CYLINDRICAL_SURFACE ( 'NONE', #130, 5.000000000000000000 ) ;
#14 = DIRECTION ( 'NONE',  ( 3.491481338843133355E-15, -1.217917285207545432E-16, 1.000000000000000000 ) ) ;
#15 = EDGE_LOOP ( 'NONE', ( #315, #207 ) ) ;
#16 = MANIFOLD_SOLID_BREP ( 'Corps-Déplacer/Copier1[1]', #277 ) ;
#17 = MANIFOLD_SOLID_BREP ( 'Corps-Déplacer/Copier1[2]', #106 ) ;
#18 = ADVANCED_FACE ( 'NONE', ( #157 ), #101, .T. ) ;
#19 = CC_DESIGN_PERSON_AND_ORGANIZATION_ASSIGNMENT ( #86, #7, ( #297 ) ) ;
#20 = PRODUCT_DEFINITION ( 'UNKNOWN', '', #81, #272 ) ;
#21 = PLANE ( 'NONE',  #220 ) ;
#22 = VERTEX_POINT ( 'NONE', #75 ) ;
#23 = VECTOR ( 'NONE', #138, 1000.000000000000000 ) ;
#24 = DIRECTION ( 'NONE',  ( 4.275831445896958607E-31, 1.000000000000000000, 1.224646799147353207E-16 ) ) ;
#25 = CARTESIAN_POINT ( 'NONE',  ( 2.496409157272840412E-13, -8.756224613903574137E-15, 71.50000000000000000 ) ) ;
#26 = CARTESIAN_POINT ( 'NONE',  ( 6.982962677686225295E-16, -2.435834570415076443E-17, 0.1999999999999988176 ) ) ;
#27 = DIRECTION ( 'NONE',  ( 4.275831445896958607E-31, 1.000000000000000000, 1.224646799147353207E-16 ) ) ;
#28 = CIRCLE ( 'NONE', #64, 4.500000000000000888 ) ;
#29 = DIRECTION ( 'NONE',  ( -3.491481338843133355E-15, 1.224646799147353207E-16, -1.000000000000000000 ) ) ;
#30 = CARTESIAN_POINT ( 'NONE',  ( 7.681258945454893382E-14, -2.694222958124176809E-15, 22.00000000000000000 ) ) ;
#31 = DIRECTION ( 'NONE',  ( 0.000000000000000000, 1.000000000000000000, 0.000000000000000000 ) ) ;
#32 = ORIENTED_EDGE ( 'NONE', *, *, #92, .T. ) ;
#33 = DIRECTION ( 'NONE',  ( 3.491481338843133355E-15, -1.217917285207545432E-16, 1.000000000000000000 ) ) ;
#34 = AXIS2_PLACEMENT_3D ( 'NONE', #111, #308, #27 ) ;
#35 = DIRECTION ( 'NONE',  ( 1.000000000000000000, 0.000000000000000000, 0.000000000000000000 ) ) ;
#36 = EDGE_CURVE ( 'NONE', #284, #322, #112, .T. ) ;
#37 = ORIENTED_EDGE ( 'NONE', *, *, #120, .F. ) ;
#38 = APPROVAL_DATE_TIME ( #323, #127 ) ;
#39 = PERSON_AND_ORGANIZATION_ROLE ( 'design_supplier' ) ;
#40 = AXIS2_PLACEMENT_3D ( 'NONE', #243, #270, #35 ) ;
#41 = DIRECTION ( 'NONE',  ( 0.000000000000000000, 1.000000000000000000, 0.000000000000000000 ) ) ;
#42 = COORDINATED_UNIVERSAL_TIME_OFFSET ( 1, 0, .AHEAD. ) ;
#43 = CARTESIAN_POINT ( 'NONE',  ( 0.000000000000000000, 0.000000000000000000, 0.000000000000000000 ) ) ;
#44 = CARTESIAN_POINT ( 'NONE',  ( 7.681258945454893382E-14, 4.999999999999997335, 22.00000000000000000 ) ) ;
#45 = VERTEX_POINT ( 'NONE', #44 ) ;
#46 = AXIS2_PLACEMENT_3D ( 'NONE', #278, #132, #280 ) ;
#47 = CARTESIAN_POINT ( 'NONE',  ( 7.681258945454893382E-14, -2.694222958124176809E-15, 22.00000000000000000 ) ) ;
#48 = CC_DESIGN_PERSON_AND_ORGANIZATION_ASSIGNMENT ( #319, #183, ( #82 ) ) ;
#49 = FACE_OUTER_BOUND ( 'NONE', #142, .T. ) ;
#50 = DIRECTION ( 'NONE',  ( 4.275831445896958607E-31, 1.000000000000000000, 1.224646799147353207E-16 ) ) ;
#51 = CARTESIAN_POINT ( 'NONE',  ( 3.936776626073243705E-14, -5.000000000000003553, 22.00000000000000000 ) ) ;
#52 = AXIS2_PLACEMENT_3D ( 'NONE', #296, #352, #50 ) ;
#53 = DIRECTION ( 'NONE',  ( -3.491481338843133355E-15, 1.224646799147353207E-16, -1.000000000000000000 ) ) ;
#54 = CYLINDRICAL_SURFACE ( 'NONE', #34, 4.999999999999999112 ) ;
#55 = PLANE ( 'NONE',  #354 ) ;
#56 = CARTESIAN_POINT ( 'NONE',  ( 2.137915722948479128E-30, 5.000000000000000000, 6.123233995736766282E-16 ) ) ;
#57 = VECTOR ( 'NONE', #335, 1000.000000000000000 ) ;
#58 = EDGE_CURVE ( 'NONE', #322, #284, #311, .T. ) ;
#59 = EDGE_CURVE ( 'NONE', #204, #113, #104, .T. ) ;
#60 =( NAMED_UNIT ( * ) PLANE_ANGLE_UNIT ( ) SI_UNIT ( $, .RADIAN. ) );
#61 = EDGE_LOOP ( 'NONE', ( #177, #32, #62, #37 ) ) ;
#62 = ORIENTED_EDGE ( 'NONE', *, *, #78, .F. ) ;
#63 = CARTESIAN_POINT ( 'NONE',  ( 2.496409157272840412E-13, -8.756224613903574137E-15, 71.50000000000000000 ) ) ;
#64 = AXIS2_PLACEMENT_3D ( 'NONE', #283, #262, #140 ) ;
#65 = LOCAL_TIME ( 8, 1, 24.00000000000000000, #235 ) ;
#66 = ORIENTED_EDGE ( 'NONE', *, *, #202, .T. ) ;
#67 = PERSON_AND_ORGANIZATION_ROLE ( 'creator' ) ;
#68 = ORIENTED_EDGE ( 'NONE', *, *, #356, .T. ) ;
#69 = ORIENTED_EDGE ( 'NONE', *, *, #79, .T. ) ;
#70 = DIRECTION ( 'NONE',  ( 3.491481338843133355E-15, -1.217917285207545432E-16, 1.000000000000000000 ) ) ;
#71 = DATE_AND_TIME ( #269, #180 ) ;
#72 = LINE ( 'NONE', #349, #152 ) ;
#73 = VERTEX_POINT ( 'NONE', #98 ) ;
#74 = CIRCLE ( 'NONE', #332, 5.000000000000000000 ) ;
#75 = CARTESIAN_POINT ( 'NONE',  ( 2.496409157272840412E-13, 4.999999999999990230, 71.50000000000000000 ) ) ;
#76 = DIRECTION ( 'NONE',  ( -3.491481338843133355E-15, 1.224646799147353207E-16, -1.000000000000000000 ) ) ;
#77 = DIRECTION ( 'NONE',  ( -4.275831445896958607E-31, -1.000000000000000000, -1.224646799147353207E-16 ) ) ;
#78 = EDGE_CURVE ( 'NONE', #22, #5, #218, .T. ) ;
#79 = EDGE_CURVE ( 'NONE', #322, #146, #185, .T. ) ;
#80 = DIRECTION ( 'NONE',  ( 0.000000000000000000, 1.000000000000000000, 0.000000000000000000 ) ) ;
#81 = PRODUCT_DEFINITION_FORMATION_WITH_SPECIFIED_SOURCE ( 'ANY', '', #82, .NOT_KNOWN. ) ;
#82 = PRODUCT ( '367656', '367656', '', ( #178 ) ) ;
#83 = ORIENTED_EDGE ( 'NONE', *, *, #259, .T. ) ;
#84 = CARTESIAN_POINT ( 'NONE',  ( 6.982962677686203602E-16, -5.000000000000000000, 0.1999999999999982070 ) ) ;
#85 = ORIENTED_EDGE ( 'NONE', *, *, #215, .T. ) ;
#86 = PERSON_AND_ORGANIZATION ( #121, #88 ) ;
#87 = AXIS2_PLACEMENT_3D ( 'NONE', #299, #254, #194 ) ;
#88 = ORGANIZATION ( 'UNSPECIFIED', 'UNSPECIFIED', '' ) ;
#89 = CC_DESIGN_DATE_AND_TIME_ASSIGNMENT ( #205, #97, ( #297 ) ) ;
#90 = ORIENTED_EDGE ( 'NONE', *, *, #151, .T. ) ;
#91 = FACE_OUTER_BOUND ( 'NONE', #289, .T. ) ;
#92 = EDGE_CURVE ( 'NONE', #73, #5, #11, .T. ) ;
#93 = ORIENTED_EDGE ( 'NONE', *, *, #174, .T. ) ;
#94 = CALENDAR_DATE ( 2023, 3, 4 ) ;
#95 = CARTESIAN_POINT ( 'NONE',  ( 3.875544286115878655E-14, 5.000000000000000000, 0.1999999999999994005 ) ) ;
#96 = CIRCLE ( 'NONE', #292, 5.000000000000000000 ) ;
#97 = DATE_TIME_ROLE ( 'classification_date' ) ;
#98 = CARTESIAN_POINT ( 'NONE',  ( 2.510954932915897566E-13, -4.500000000000008882, 72.00000000000000000 ) ) ;
#99 = ORIENTED_EDGE ( 'NONE', *, *, #92, .F. ) ;
#100 = EDGE_CURVE ( 'NONE', #113, #204, #96, .T. ) ;
#101 = CYLINDRICAL_SURFACE ( 'NONE', #52, 5.000000000000000000 ) ;
#102 = DIRECTION ( 'NONE',  ( 0.000000000000000000, 1.000000000000000000, 0.000000000000000000 ) ) ;
#103 = EDGE_LOOP ( 'NONE', ( #350, #159 ) ) ;
#104 = CIRCLE ( 'NONE', #144, 5.000000000000000000 ) ;
#105 = LOCAL_TIME ( 8, 1, 24.00000000000000000, #328 ) ;
#106 = CLOSED_SHELL ( 'NONE', ( #345, #110, #18, #355, #136, #190 ) ) ;
#107 = FACE_OUTER_BOUND ( 'NONE', #172, .T. ) ;
#108 = CC_DESIGN_APPROVAL ( #127, ( #297 ) ) ;
#109 = CC_DESIGN_DATE_AND_TIME_ASSIGNMENT ( #201, #325, ( #20 ) ) ;
#110 = ADVANCED_FACE ( 'NONE', ( #91 ), #13, .T. ) ;
#111 = CARTESIAN_POINT ( 'NONE',  ( 0.000000000000000000, 0.000000000000000000, 0.000000000000000000 ) ) ;
#112 = CIRCLE ( 'NONE', #236, 4.800000000000000711 ) ;
#113 = VERTEX_POINT ( 'NONE', #184 ) ;
#114 = CARTESIAN_POINT ( 'NONE',  ( -4.082242054614370247E-30, -4.800000000000000711, -1.169200593799243694E-15 ) ) ;
#115 = ORIENTED_EDGE ( 'NONE', *, *, #59, .F. ) ;
#116 = COORDINATED_UNIVERSAL_TIME_OFFSET ( 1, 0, .AHEAD. ) ;
#117 = ORIENTED_EDGE ( 'NONE', *, *, #149, .F. ) ;
#118 = CIRCLE ( 'NONE', #244, 4.999999999999999112 ) ;
#119 = APPROVAL_ROLE ( '' ) ;
#120 = EDGE_CURVE ( 'NONE', #331, #22, #72, .T. ) ;
#121 = PERSON ( 'UNSPECIFIED', 'UNSPECIFIED', 'UNSPECIFIED', ('UNSPECIFIED'), ('UNSPECIFIED'), ('UNSPECIFIED') ) ;
#122 = ORIENTED_EDGE ( 'NONE', *, *, #248, .F. ) ;
#123 = DIRECTION ( 'NONE',  ( -4.252335473556634944E-31, -1.000000000000000000, -1.217917285207545432E-16 ) ) ;
#124 = AXIS2_PLACEMENT_3D ( 'NONE', #360, #314, #313 ) ;
#125 = ORIENTED_EDGE ( 'NONE', *, *, #59, .T. ) ;
#126 = CARTESIAN_POINT ( 'NONE',  ( 2.496409157272840412E-13, -8.756224613903574137E-15, 71.50000000000000000 ) ) ;
#127 = APPROVAL ( #286, 'UNSPECIFIED' ) ;
#128 = DIRECTION ( 'NONE',  ( -3.491481338843133355E-15, 1.224646799147353207E-16, -1.000000000000000000 ) ) ;
#129 = EDGE_LOOP ( 'NONE', ( #327, #125 ) ) ;
#130 = AXIS2_PLACEMENT_3D ( 'NONE', #43, #216, #300 ) ;
#131 = CARTESIAN_POINT ( 'NONE',  ( 2.513866563967056016E-13, 3.374459510989167028E-32, 72.00000000000000000 ) ) ;
#132 = DIRECTION ( 'NONE',  ( -3.491481338843133355E-15, 1.224646799147353207E-16, -1.000000000000000000 ) ) ;
#133 = CARTESIAN_POINT ( 'NONE',  ( 1.638390759904901506E-13, -5.000000000000002665, 22.00000000000000000 ) ) ;
#134 = DIRECTION ( 'NONE',  ( 3.491481338843133355E-15, -1.224646799147353207E-16, 1.000000000000000000 ) ) ;
#135 = CARTESIAN_POINT ( 'NONE',  ( -1.068957861474239564E-30, 3.749399456654644020E-32, -3.061616997868383141E-16 ) ) ;
#136 = ADVANCED_FACE ( 'NONE', ( #49 ), #186, .T. ) ;
#137 = AXIS2_PLACEMENT_3D ( 'NONE', #240, #206, #295 ) ;
#138 = DIRECTION ( 'NONE',  ( 2.468850131082263766E-15, -0.7071067811865481278, 0.7071067811865470176 ) ) ;
#139 = DIRECTION ( 'NONE',  ( -3.491481338843133355E-15, 1.224646799147353207E-16, -1.000000000000000000 ) ) ;
#140 = DIRECTION ( 'NONE',  ( 0.000000000000000000, 1.000000000000000000, 0.000000000000000000 ) ) ;
#141 = DIRECTION ( 'NONE',  ( -4.275831445896958607E-31, -1.000000000000000000, -1.224646799147353207E-16 ) ) ;
#142 = EDGE_LOOP ( 'NONE', ( #287, #252, #339, #238 ) ) ;
#143 = LINE ( 'NONE', #229, #165 ) ;
#144 = AXIS2_PLACEMENT_3D ( 'NONE', #245, #2, #41 ) ;
#145 = LOCAL_TIME ( 8, 1, 24.00000000000000000, #116 ) ;
#146 = VERTEX_POINT ( 'NONE', #95 ) ;
#147 = CALENDAR_DATE ( 2023, 3, 4 ) ;
#148 = ORIENTED_EDGE ( 'NONE', *, *, #151, .F. ) ;
#149 = EDGE_CURVE ( 'NONE', #22, #113, #212, .T. ) ;
#150 = APPROVAL_ROLE ( '' ) ;
#151 = EDGE_CURVE ( 'NONE', #45, #146, #279, .T. ) ;
#152 = VECTOR ( 'NONE', #187, 1000.000000000000000 ) ;
#153 = CONICAL_SURFACE ( 'NONE', #316, 4.999999999999999112, 0.7853981633974466137 ) ;
#154 = DIRECTION ( 'NONE',  ( 2.555445736705814007E-15, 0.7071067811865479058, 0.7071067811865472397 ) ) ;
#155 = PERSON_AND_ORGANIZATION ( #121, #88 ) ;
#156 = CARTESIAN_POINT ( 'NONE',  ( -2.041121027307185123E-30, 7.119948065315124931E-32, -5.846002968996218470E-16 ) ) ;
#157 = FACE_OUTER_BOUND ( 'NONE', #189, .T. ) ;
#158 = AXIS2_PLACEMENT_3D ( 'NONE', #361, #33, #266 ) ;
#159 = ORIENTED_EDGE ( 'NONE', *, *, #356, .F. ) ;
#160 = ADVANCED_FACE ( 'NONE', ( #162 ), #334, .F. ) ;
#161 = DIRECTION ( 'NONE',  ( 0.000000000000000000, 1.000000000000000000, 0.000000000000000000 ) ) ;
#162 = FACE_OUTER_BOUND ( 'NONE', #234, .T. ) ;
#163 = UNCERTAINTY_MEASURE_WITH_UNIT (LENGTH_MEASURE( 1.000000000000000082E-05 ), #285, 'distance_accuracy_value', 'NONE');
#164 = CARTESIAN_POINT ( 'NONE',  ( 2.513866563967056016E-13, 4.499999999999992006, 72.00000000000000000 ) ) ;
#165 = VECTOR ( 'NONE', #139, 1000.000000000000000 ) ;
#166 = DIRECTION ( 'NONE',  ( -3.491481338843133355E-15, 1.224646799147353207E-16, -1.000000000000000000 ) ) ;
#167 = FACE_OUTER_BOUND ( 'NONE', #103, .T. ) ;
#168 = ORIENTED_EDGE ( 'NONE', *, *, #174, .F. ) ;
#169 = FACE_OUTER_BOUND ( 'NONE', #61, .T. ) ;
#170 = VERTEX_POINT ( 'NONE', #51 ) ;
#171 = AXIS2_PLACEMENT_3D ( 'NONE', #156, #14, #123 ) ;
#172 = EDGE_LOOP ( 'NONE', ( #250, #69, #247, #338 ) ) ;
#173 = APPLICATION_PROTOCOL_DEFINITION ( 'international standard', 'config_control_design', 1994, #340 ) ;
#174 = EDGE_CURVE ( 'NONE', #170, #213, #276, .T. ) ;
#175 = ORIENTED_EDGE ( 'NONE', *, *, #282, .T. ) ;
#176 = PERSON_AND_ORGANIZATION ( #121, #88 ) ;
#177 = ORIENTED_EDGE ( 'NONE', *, *, #217, .T. ) ;
#178 = MECHANICAL_CONTEXT ( 'NONE', #306, 'mechanical' ) ;
#179 = VECTOR ( 'NONE', #191, 1000.000000000000000 ) ;
#180 = LOCAL_TIME ( 8, 1, 24.00000000000000000, #42 ) ;
#181 = PERSON_AND_ORGANIZATION ( #121, #88 ) ;
#182 = DIRECTION ( 'NONE',  ( -4.252335473556634944E-31, -1.000000000000000000, -1.217917285207545432E-16 ) ) ;
#183 = PERSON_AND_ORGANIZATION_ROLE ( 'design_owner' ) ;
#184 = CARTESIAN_POINT ( 'NONE',  ( 7.681258945454893382E-14, 4.999999999999997335, 22.00000000000000000 ) ) ;
#185 = LINE ( 'NONE', #329, #197 ) ;
#186 = CONICAL_SURFACE ( 'NONE', #137, 5.000000000000000000, 0.7853981633974489451 ) ;
#187 = DIRECTION ( 'NONE',  ( -2.468850131082269682E-15, 0.7071067811865464625, -0.7071067811865486830 ) ) ;
#188 = ADVANCED_FACE ( 'NONE', ( #333 ), #54, .T. ) ;
#189 = EDGE_LOOP ( 'NONE', ( #168, #68, #90, #175 ) ) ;
#190 = ADVANCED_FACE ( 'NONE', ( #223 ), #21, .T. ) ;
#191 = DIRECTION ( 'NONE',  ( -3.491481338843133355E-15, 1.224646799147353207E-16, -1.000000000000000000 ) ) ;
#192 = CARTESIAN_POINT ( 'NONE',  ( 6.123233995736744589E-16, -5.000000000000000000, -6.123233995736786990E-16 ) ) ;
#193 = VECTOR ( 'NONE', #298, 1000.000000000000000 ) ;
#194 = DIRECTION ( 'NONE',  ( -4.237045877651918877E-31, -1.000000000000000000, -1.192622389734054877E-16 ) ) ;
#195 = DIRECTION ( 'NONE',  ( -3.491481338843133355E-15, 1.224646799147353207E-16, -1.000000000000000000 ) ) ;
#196 = DIRECTION ( 'NONE',  ( -4.237045877651918877E-31, -1.000000000000000000, -1.192622389734054877E-16 ) ) ;
#197 = VECTOR ( 'NONE', #154, 1000.000000000000000 ) ;
#198 = CC_DESIGN_SECURITY_CLASSIFICATION ( #297, ( #81 ) ) ;
#199 = EDGE_LOOP ( 'NONE', ( #267, #66, #219, #115 ) ) ;
#200 = PLANE ( 'NONE',  #3 ) ;
#201 = DATE_AND_TIME ( #94, #65 ) ;
#202 = EDGE_CURVE ( 'NONE', #5, #22, #118, .T. ) ;
#203 = APPROVAL_STATUS ( 'not_yet_approved' ) ;
#204 = VERTEX_POINT ( 'NONE', #133 ) ;
#205 = DATE_AND_TIME ( #147, #274 ) ;
#206 = DIRECTION ( 'NONE',  ( 3.491481338843133355E-15, -1.217917285207545432E-16, 1.000000000000000000 ) ) ;
#207 = ORIENTED_EDGE ( 'NONE', *, *, #58, .F. ) ;
#208 = CC_DESIGN_PERSON_AND_ORGANIZATION_ASSIGNMENT ( #271, #39, ( #81 ) ) ;
#209 = SHAPE_DEFINITION_REPRESENTATION ( #337, #12 ) ;
#210 = CIRCLE ( 'NONE', #264, 5.000000000000000000 ) ;
#211 = APPROVAL_PERSON_ORGANIZATION ( #347, #246, #294 ) ;
#212 = LINE ( 'NONE', #326, #57 ) ;
#213 = VERTEX_POINT ( 'NONE', #255 ) ;
#214 = PERSON_AND_ORGANIZATION ( #121, #88 ) ;
#215 = EDGE_CURVE ( 'NONE', #45, #170, #210, .T. ) ;
#216 = DIRECTION ( 'NONE',  ( -3.491481338843133355E-15, 1.224646799147353207E-16, -1.000000000000000000 ) ) ;
#217 = EDGE_CURVE ( 'NONE', #331, #73, #28, .T. ) ;
#218 = CIRCLE ( 'NONE', #324, 4.999999999999999112 ) ;
#219 = ORIENTED_EDGE ( 'NONE', *, *, #149, .T. ) ;
#220 = AXIS2_PLACEMENT_3D ( 'NONE', #135, #128, #251 ) ;
#221 = CC_DESIGN_APPROVAL ( #261, ( #20 ) ) ;
#222 = APPLICATION_PROTOCOL_DEFINITION ( 'international standard', 'config_control_design', 1994, #306 ) ;
#223 = FACE_OUTER_BOUND ( 'NONE', #15, .T. ) ;
#224 = FACE_OUTER_BOUND ( 'NONE', #346, .T. ) ;
#225 = ADVANCED_FACE ( 'NONE', ( #275 ), #304, .T. ) ;
#226 = CC_DESIGN_PERSON_AND_ORGANIZATION_ASSIGNMENT ( #176, #344, ( #20 ) ) ;
#227 = CONICAL_SURFACE ( 'NONE', #237, 4.999999999999999112, 0.7853981633974466137 ) ;
#228 = APPROVAL_PERSON_ORGANIZATION ( #181, #261, #119 ) ;
#229 = CARTESIAN_POINT ( 'NONE',  ( 6.123233995736743603E-16, -4.999999999999999112, -6.123233995736786004E-16 ) ) ;
#230 = ORIENTED_EDGE ( 'NONE', *, *, #202, .F. ) ;
#231 = LINE ( 'NONE', #84, #23 ) ;
#232 = ORIENTED_EDGE ( 'NONE', *, *, #291, .T. ) ;
#233 = SECURITY_CLASSIFICATION_LEVEL ( 'unclassified' ) ;
#234 = EDGE_LOOP ( 'NONE', ( #9, #122 ) ) ;
#235 = COORDINATED_UNIVERSAL_TIME_OFFSET ( 1, 0, .AHEAD. ) ;
#236 = AXIS2_PLACEMENT_3D ( 'NONE', #301, #70, #182 ) ;
#237 = AXIS2_PLACEMENT_3D ( 'NONE', #63, #195, #31 ) ;
#238 = ORIENTED_EDGE ( 'NONE', *, *, #282, .F. ) ;
#239 = DATE_AND_TIME ( #351, #145 ) ;
#240 = CARTESIAN_POINT ( 'NONE',  ( 6.982962677686225295E-16, -2.435834570415076443E-17, 0.1999999999999988176 ) ) ;
#241 = CALENDAR_DATE ( 2023, 3, 4 ) ;
#242 = DIRECTION ( 'NONE',  ( -3.491481338843133355E-15, 1.224646799147353207E-16, -1.000000000000000000 ) ) ;
#243 = CARTESIAN_POINT ( 'NONE',  ( 0.000000000000000000, 0.000000000000000000, 0.000000000000000000 ) ) ;
#244 = AXIS2_PLACEMENT_3D ( 'NONE', #25, #303, #161 ) ;
#245 = CARTESIAN_POINT ( 'NONE',  ( 7.681258945454893382E-14, -2.694222958124176809E-15, 22.00000000000000000 ) ) ;
#246 = APPROVAL ( #288, 'UNSPECIFIED' ) ;
#247 = ORIENTED_EDGE ( 'NONE', *, *, #259, .F. ) ;
#248 = EDGE_CURVE ( 'NONE', #73, #331, #359, .T. ) ;
#249 = DIRECTION ( 'NONE',  ( -3.491481338843133355E-15, 1.224646799147353207E-16, -1.000000000000000000 ) ) ;
#250 = ORIENTED_EDGE ( 'NONE', *, *, #36, .T. ) ;
#251 = DIRECTION ( 'NONE',  ( 4.275831445896958607E-31, 1.000000000000000000, 1.224646799147353207E-16 ) ) ;
#252 = ORIENTED_EDGE ( 'NONE', *, *, #58, .T. ) ;
#253 = CONICAL_SURFACE ( 'NONE', #158, 5.000000000000000000, 0.7853981633974489451 ) ;
#254 = DIRECTION ( 'NONE',  ( 3.491481338843133355E-15, -1.217917285207545432E-16, 1.000000000000000000 ) ) ;
#255 = CARTESIAN_POINT ( 'NONE',  ( 3.936776626073245598E-14, -5.000000000000000000, 0.1999999999999982070 ) ) ;
#256 = FACE_OUTER_BOUND ( 'NONE', #129, .T. ) ;
#257 = CIRCLE ( 'NONE', #87, 5.000000000000000000 ) ;
#258 = DIRECTION ( 'NONE',  ( 3.491481338843133355E-15, -1.224646799147353207E-16, 1.000000000000000000 ) ) ;
#259 = EDGE_CURVE ( 'NONE', #213, #146, #257, .T. ) ;
#260 = CARTESIAN_POINT ( 'NONE',  ( 9.492250654665174942E-16, 4.800000000000000711, -3.274080905458300950E-30 ) ) ;
#261 = APPROVAL ( #203, 'UNSPECIFIED' ) ;
#262 = DIRECTION ( 'NONE',  ( -3.491481338843133355E-15, 1.224646799147353207E-16, -1.000000000000000000 ) ) ;
#263 = EDGE_LOOP ( 'NONE', ( #318, #232, #341, #117 ) ) ;
#264 = AXIS2_PLACEMENT_3D ( 'NONE', #30, #166, #362 ) ;
#265 =( GEOMETRIC_REPRESENTATION_CONTEXT ( 3 ) GLOBAL_UNCERTAINTY_ASSIGNED_CONTEXT ( ( #163 ) ) GLOBAL_UNIT_ASSIGNED_CONTEXT ( ( #285, #60, #310 ) ) REPRESENTATION_CONTEXT ( 'NONE', 'WORKASPACE' ) );
#266 = DIRECTION ( 'NONE',  ( -4.237045877651918877E-31, -1.000000000000000000, -1.192622389734054877E-16 ) ) ;
#267 = ORIENTED_EDGE ( 'NONE', *, *, #291, .F. ) ;
#268 = ORIENTED_EDGE ( 'NONE', *, *, #120, .T. ) ;
#269 = CALENDAR_DATE ( 2023, 3, 4 ) ;
#270 = DIRECTION ( 'NONE',  ( 0.000000000000000000, 0.000000000000000000, 1.000000000000000000 ) ) ;
#271 = PERSON_AND_ORGANIZATION ( #121, #88 ) ;
#272 = DESIGN_CONTEXT ( 'detailed design', #340, 'design' ) ;
#273 = VECTOR ( 'NONE', #305, 1000.000000000000000 ) ;
#274 = LOCAL_TIME ( 8, 1, 24.00000000000000000, #317 ) ;
#275 = FACE_OUTER_BOUND ( 'NONE', #263, .T. ) ;
#276 = LINE ( 'NONE', #192, #179 ) ;
#277 = CLOSED_SHELL ( 'NONE', ( #309, #225, #290, #188, #321, #160 ) ) ;
#278 = CARTESIAN_POINT ( 'NONE',  ( 2.513866563967056016E-13, -8.817456953860941711E-15, 72.00000000000000000 ) ) ;
#279 = LINE ( 'NONE', #56, #273 ) ;
#280 = DIRECTION ( 'NONE',  ( 0.000000000000000000, 1.000000000000000000, 0.000000000000000000 ) ) ;
#281 = CARTESIAN_POINT ( 'NONE',  ( 7.681258945454893382E-14, 3.749399456654639093E-32, 22.00000000000000000 ) ) ;
#282 = EDGE_CURVE ( 'NONE', #146, #213, #74, .T. ) ;
#283 = CARTESIAN_POINT ( 'NONE',  ( 2.513866563967056016E-13, -8.817456953860941711E-15, 72.00000000000000000 ) ) ;
#284 = VERTEX_POINT ( 'NONE', #114 ) ;
#285 =( LENGTH_UNIT ( ) NAMED_UNIT ( * ) SI_UNIT ( .MILLI., .METRE. ) );
#286 = APPROVAL_STATUS ( 'not_yet_approved' ) ;
#287 = ORIENTED_EDGE ( 'NONE', *, *, #79, .F. ) ;
#288 = APPROVAL_STATUS ( 'not_yet_approved' ) ;
#289 = EDGE_LOOP ( 'NONE', ( #85, #93, #83, #148 ) ) ;
#290 = ADVANCED_FACE ( 'NONE', ( #256 ), #55, .F. ) ;
#291 = EDGE_CURVE ( 'NONE', #5, #204, #143, .T. ) ;
#292 = AXIS2_PLACEMENT_3D ( 'NONE', #47, #249, #102 ) ;
#293 = CARTESIAN_POINT ( 'NONE',  ( 1.638390759904901001E-13, -5.000000000000007994, 71.50000000000000000 ) ) ;
#294 = APPROVAL_ROLE ( '' ) ;
#295 = DIRECTION ( 'NONE',  ( -4.237045877651918877E-31, -1.000000000000000000, -1.192622389734054877E-16 ) ) ;
#296 = CARTESIAN_POINT ( 'NONE',  ( 0.000000000000000000, 0.000000000000000000, 0.000000000000000000 ) ) ;
#297 = SECURITY_CLASSIFICATION ( '', '', #233 ) ;
#298 = DIRECTION ( 'NONE',  ( -2.382254525458721019E-15, -0.7071067811865462405, -0.7071067811865489050 ) ) ;
#299 = CARTESIAN_POINT ( 'NONE',  ( 6.982962677686225295E-16, -2.435834570415076443E-17, 0.1999999999999988176 ) ) ;
#300 = DIRECTION ( 'NONE',  ( 4.275831445896958607E-31, 1.000000000000000000, 1.224646799147353207E-16 ) ) ;
#301 = CARTESIAN_POINT ( 'NONE',  ( -2.041121027307185123E-30, 7.119948065315124931E-32, -5.846002968996218470E-16 ) ) ;
#302 = DIRECTION ( 'NONE',  ( 4.275831445896958607E-31, 1.000000000000000000, 1.224646799147353207E-16 ) ) ;
#303 = DIRECTION ( 'NONE',  ( -3.491481338843133355E-15, 1.224646799147353207E-16, -1.000000000000000000 ) ) ;
#304 = CYLINDRICAL_SURFACE ( 'NONE', #342, 4.999999999999999112 ) ;
#305 = DIRECTION ( 'NONE',  ( -3.491481338843133355E-15, 1.224646799147353207E-16, -1.000000000000000000 ) ) ;
#306 = APPLICATION_CONTEXT ( 'configuration controlled 3d designs of mechanical parts and assemblies' ) ;
#307 = CARTESIAN_POINT ( 'NONE',  ( 2.496409157272840412E-13, -8.756224613903574137E-15, 71.50000000000000000 ) ) ;
#308 = DIRECTION ( 'NONE',  ( -3.491481338843133355E-15, 1.224646799147353207E-16, -1.000000000000000000 ) ) ;
#309 = ADVANCED_FACE ( 'NONE', ( #169 ), #227, .T. ) ;
#310 =( NAMED_UNIT ( * ) SI_UNIT ( $, .STERADIAN. ) SOLID_ANGLE_UNIT ( ) );
#311 = CIRCLE ( 'NONE', #171, 4.800000000000000711 ) ;
#312 = APPROVAL_PERSON_ORGANIZATION ( #214, #127, #150 ) ;
#313 = DIRECTION ( 'NONE',  ( 0.000000000000000000, 1.000000000000000000, 0.000000000000000000 ) ) ;
#314 = DIRECTION ( 'NONE',  ( -3.491481338843133355E-15, 1.224646799147353207E-16, -1.000000000000000000 ) ) ;
#315 = ORIENTED_EDGE ( 'NONE', *, *, #36, .F. ) ;
#316 = AXIS2_PLACEMENT_3D ( 'NONE', #307, #29, #80 ) ;
#317 = COORDINATED_UNIVERSAL_TIME_OFFSET ( 1, 0, .AHEAD. ) ;
#318 = ORIENTED_EDGE ( 'NONE', *, *, #78, .T. ) ;
#319 = PERSON_AND_ORGANIZATION ( #121, #88 ) ;
#320 = EDGE_CURVE ( 'NONE', #284, #213, #231, .T. ) ;
#321 = ADVANCED_FACE ( 'NONE', ( #224 ), #153, .T. ) ;
#322 = VERTEX_POINT ( 'NONE', #260 ) ;
#323 = DATE_AND_TIME ( #241, #105 ) ;
#324 = AXIS2_PLACEMENT_3D ( 'NONE', #126, #242, #330 ) ;
#325 = DATE_TIME_ROLE ( 'creation_date' ) ;
#326 = CARTESIAN_POINT ( 'NONE',  ( 2.137915722948478778E-30, 4.999999999999999112, 6.123233995736765296E-16 ) ) ;
#327 = ORIENTED_EDGE ( 'NONE', *, *, #100, .T. ) ;
#328 = COORDINATED_UNIVERSAL_TIME_OFFSET ( 1, 0, .AHEAD. ) ;
#329 = CARTESIAN_POINT ( 'NONE',  ( 1.310619667342301229E-15, 5.000000000000000000, 0.1999999999999994005 ) ) ;
#330 = DIRECTION ( 'NONE',  ( 0.000000000000000000, 1.000000000000000000, 0.000000000000000000 ) ) ;
#331 = VERTEX_POINT ( 'NONE', #164 ) ;
#332 = AXIS2_PLACEMENT_3D ( 'NONE', #26, #4, #196 ) ;
#333 = FACE_OUTER_BOUND ( 'NONE', #199, .T. ) ;
#334 = PLANE ( 'NONE',  #1 ) ;
#335 = DIRECTION ( 'NONE',  ( -3.491481338843133355E-15, 1.224646799147353207E-16, -1.000000000000000000 ) ) ;
#336 = CIRCLE ( 'NONE', #124, 5.000000000000000000 ) ;
#337 = PRODUCT_DEFINITION_SHAPE ( 'NONE', 'NONE',  #20 ) ;
#338 = ORIENTED_EDGE ( 'NONE', *, *, #320, .F. ) ;
#339 = ORIENTED_EDGE ( 'NONE', *, *, #320, .T. ) ;
#340 = APPLICATION_CONTEXT ( 'configuration controlled 3d designs of mechanical parts and assemblies' ) ;
#341 = ORIENTED_EDGE ( 'NONE', *, *, #100, .F. ) ;
#342 = AXIS2_PLACEMENT_3D ( 'NONE', #353, #53, #302 ) ;
#343 = CC_DESIGN_APPROVAL ( #246, ( #81 ) ) ;
#344 = PERSON_AND_ORGANIZATION_ROLE ( 'creator' ) ;
#345 = ADVANCED_FACE ( 'NONE', ( #107 ), #253, .T. ) ;
#346 = EDGE_LOOP ( 'NONE', ( #99, #357, #268, #230 ) ) ;
#347 = PERSON_AND_ORGANIZATION ( #121, #88 ) ;
#348 = APPROVAL_DATE_TIME ( #239, #261 ) ;
#349 = CARTESIAN_POINT ( 'NONE',  ( 2.496409157272840412E-13, 4.999999999999990230, 71.50000000000000000 ) ) ;
#350 = ORIENTED_EDGE ( 'NONE', *, *, #215, .F. ) ;
#351 = CALENDAR_DATE ( 2023, 3, 4 ) ;
#352 = DIRECTION ( 'NONE',  ( -3.491481338843133355E-15, 1.224646799147353207E-16, -1.000000000000000000 ) ) ;
#353 = CARTESIAN_POINT ( 'NONE',  ( 0.000000000000000000, 0.000000000000000000, 0.000000000000000000 ) ) ;
#354 = AXIS2_PLACEMENT_3D ( 'NONE', #358, #134, #141 ) ;
#355 = ADVANCED_FACE ( 'NONE', ( #167 ), #200, .T. ) ;
#356 = EDGE_CURVE ( 'NONE', #170, #45, #336, .T. ) ;
#357 = ORIENTED_EDGE ( 'NONE', *, *, #248, .T. ) ;
#358 = CARTESIAN_POINT ( 'NONE',  ( 7.681258945454893382E-14, 3.749399456654639093E-32, 22.00000000000000000 ) ) ;
#359 = CIRCLE ( 'NONE', #46, 4.500000000000000888 ) ;
#360 = CARTESIAN_POINT ( 'NONE',  ( 7.681258945454893382E-14, -2.694222958124176809E-15, 22.00000000000000000 ) ) ;
#361 = CARTESIAN_POINT ( 'NONE',  ( 6.982962677686225295E-16, -2.435834570415076443E-17, 0.1999999999999988176 ) ) ;
#362 = DIRECTION ( 'NONE',  ( 0.000000000000000000, 1.000000000000000000, 0.000000000000000000 ) ) ;
#363 = PRODUCT_RELATED_PRODUCT_CATEGORY ( 'detail', '', ( #82 ) ) ;
ENDSEC;
END-ISO-10303-21;
