ISO-10303-21;
HEADER;
FILE_DESCRIPTION (( 'STEP AP203' ),
    '1' );
FILE_NAME ('367655.step',
    '2023-04-03T06:01:23',
    ( '' ),
    ( '' ),
    'SwSTEP 2.0',
    'SolidWorks 2022',
    '' );
FILE_SCHEMA (( 'CONFIG_CONTROL_DESIGN' ));
ENDSEC;

DATA;
#1 = EDGE_CURVE ( 'NONE', #91, #93, #129, .T. ) ;
#2 = CARTESIAN_POINT ( 'NONE',  ( 3.456566525454702148E-13, -1.212400331155879702E-14, 99.00000000000000000 ) ) ;
#3 = ORIENTED_EDGE ( 'NONE', *, *, #192, .F. ) ;
#4 = ORIENTED_EDGE ( 'NONE', *, *, #201, .T. ) ;
#5 = ADVANCED_FACE ( 'NONE', ( #104 ), #352, .T. ) ;
#6 = ORIENTED_EDGE ( 'NONE', *, *, #304, .F. ) ;
#7 = AXIS2_PLACEMENT_3D ( 'NONE', #145, #60, #20 ) ;
#8 = APPROVAL_PERSON_ORGANIZATION ( #28, #360, #286 ) ;
#9 = PERSON ( 'UNSPECIFIED', 'UNSPECIFIED', 'UNSPECIFIED', ('UNSPECIFIED'), ('UNSPECIFIED'), ('UNSPECIFIED') ) ;
#10 = EDGE_LOOP ( 'NONE', ( #160, #4, #161, #273 ) ) ;
#11 = EDGE_CURVE ( 'NONE', #323, #112, #17, .T. ) ;
#12 = DIRECTION ( 'NONE',  ( 0.000000000000000000, 1.000000000000000000, 0.000000000000000000 ) ) ;
#13 = VERTEX_POINT ( 'NONE', #256 ) ;
#14 = CARTESIAN_POINT ( 'NONE',  ( 3.491481338843133355E-13, 6.999999999999987566, 100.0000000000000000 ) ) ;
#15 = CARTESIAN_POINT ( 'NONE',  ( 6.982962677686250933E-16, -2.435834570415085380E-17, 0.1999999999999995393 ) ) ;
#16 = AXIS2_PLACEMENT_3D ( 'NONE', #143, #260, #282 ) ;
#17 = LINE ( 'NONE', #167, #200 ) ;
#18 = CARTESIAN_POINT ( 'NONE',  ( 6.982962677686250933E-16, -2.435834570415085380E-17, 0.1999999999999995393 ) ) ;
#19 = CONICAL_SURFACE ( 'NONE', #225, 8.000000000000000000, 0.7853981633974504994 ) ;
#20 = DIRECTION ( 'NONE',  ( -4.252335473556634944E-31, -1.000000000000000000, -1.217917285207545432E-16 ) ) ;
#21 = DIRECTION ( 'NONE',  ( -2.382254525458717469E-15, -0.7071067811865471286, -0.7071067811865479058 ) ) ;
#22 = CC_DESIGN_APPROVAL ( #360, ( #69 ) ) ;
#23 = DIRECTION ( 'NONE',  ( -4.212971753347078429E-31, -1.000000000000000000, -1.219727444046192488E-16 ) ) ;
#24 = DIRECTION ( 'NONE',  ( 3.491481338843133355E-15, -1.217917285207545432E-16, 1.000000000000000000 ) ) ;
#25 = PERSON_AND_ORGANIZATION ( #9, #175 ) ;
#26 = DIRECTION ( 'NONE',  ( -3.491481338843133355E-15, 1.224646799147353207E-16, -1.000000000000000000 ) ) ;
#27 = PRODUCT_DEFINITION_SHAPE ( 'NONE', 'NONE',  #69 ) ;
#28 = PERSON_AND_ORGANIZATION ( #9, #175 ) ;
#29 = CARTESIAN_POINT ( 'NONE',  ( 1.256933281983528008E-13, 5.999039130647424958E-32, 36.00000000000000000 ) ) ;
#30 = AXIS2_PLACEMENT_3D ( 'NONE', #222, #300, #12 ) ;
#31 = DATE_AND_TIME ( #82, #140 ) ;
#32 = ADVANCED_FACE ( 'NONE', ( #354 ), #109, .T. ) ;
#33 = ORIENTED_EDGE ( 'NONE', *, *, #163, .F. ) ;
#34 = CALENDAR_DATE ( 2023, 3, 4 ) ;
#35 = EDGE_LOOP ( 'NONE', ( #241, #33 ) ) ;
#36 = DIRECTION ( 'NONE',  ( -3.491481338843133355E-15, 1.224646799147353207E-16, -1.000000000000000000 ) ) ;
#37 = ORIENTED_EDGE ( 'NONE', *, *, #163, .T. ) ;
#38 = CONICAL_SURFACE ( 'NONE', #131, 8.000000000000000000, 0.7853981633974479459 ) ;
#39 = ORIENTED_EDGE ( 'NONE', *, *, #343, .F. ) ;
#40 = EDGE_CURVE ( 'NONE', #347, #130, #291, .T. ) ;
#41 = ORIENTED_EDGE ( 'NONE', *, *, #121, .F. ) ;
#42 = PRODUCT ( '367655', '367655', '', ( #90 ) ) ;
#43 = CARTESIAN_POINT ( 'NONE',  ( 2.366547078112293385E-13, -8.000000000000012434, 99.00000000000000000 ) ) ;
#44 = DIRECTION ( 'NONE',  ( -4.212971753347078429E-31, -1.000000000000000000, -1.219727444046192488E-16 ) ) ;
#45 = FACE_OUTER_BOUND ( 'NONE', #10, .T. ) ;
#46 = CARTESIAN_POINT ( 'NONE',  ( 0.000000000000000000, 0.000000000000000000, 0.000000000000000000 ) ) ;
#47 = LOCAL_TIME ( 8, 1, 23.00000000000000000, #359 ) ;
#48 = DIRECTION ( 'NONE',  ( 0.000000000000000000, 1.000000000000000000, 0.000000000000000000 ) ) ;
#49 = DIRECTION ( 'NONE',  ( 3.491481338843133355E-15, -1.224646799147353207E-16, 1.000000000000000000 ) ) ;
#50 = CARTESIAN_POINT ( 'NONE',  ( -6.633643338748349461E-30, -7.799999999999998934, -1.899950964923770658E-15 ) ) ;
#51 = DIRECTION ( 'NONE',  ( -4.252335473556634944E-31, -1.000000000000000000, -1.217917285207545432E-16 ) ) ;
#52 = CC_DESIGN_PERSON_AND_ORGANIZATION_ASSIGNMENT ( #25, #147, ( #355 ) ) ;
#53 = DIRECTION ( 'NONE',  ( -3.491481338843133355E-15, 1.224646799147353207E-16, -1.000000000000000000 ) ) ;
#54 = ADVANCED_FACE ( 'NONE', ( #75 ), #38, .T. ) ;
#55 = CIRCLE ( 'NONE', #324, 8.000000000000000000 ) ;
#56 = PERSON_AND_ORGANIZATION ( #9, #175 ) ;
#57 = EDGE_CURVE ( 'NONE', #177, #93, #159, .T. ) ;
#58 = CIRCLE ( 'NONE', #203, 8.000000000000000000 ) ;
#59 = LOCAL_TIME ( 8, 1, 23.00000000000000000, #239 ) ;
#60 = DIRECTION ( 'NONE',  ( 3.491481338843133355E-15, -1.217917285207545432E-16, 1.000000000000000000 ) ) ;
#61 = DIRECTION ( 'NONE',  ( 0.000000000000000000, 1.000000000000000000, 0.000000000000000000 ) ) ;
#62 = APPROVAL_STATUS ( 'not_yet_approved' ) ;
#63 = VERTEX_POINT ( 'NONE', #50 ) ;
#64 = CARTESIAN_POINT ( 'NONE',  ( 1.256933281983528008E-13, 7.999999999999996447, 36.00000000000000000 ) ) ;
#65 = EDGE_LOOP ( 'NONE', ( #6, #68 ) ) ;
#66 = PERSON_AND_ORGANIZATION ( #9, #175 ) ;
#67 = LINE ( 'NONE', #287, #132 ) ;
#68 = ORIENTED_EDGE ( 'NONE', *, *, #313, .F. ) ;
#69 = PRODUCT_DEFINITION ( 'UNKNOWN', '', #355, #356 ) ;
#70 = ORIENTED_EDGE ( 'NONE', *, *, #11, .T. ) ;
#71 = AXIS2_PLACEMENT_3D ( 'NONE', #46, #166, #133 ) ;
#72 = EDGE_LOOP ( 'NONE', ( #243, #342 ) ) ;
#73 = DIRECTION ( 'NONE',  ( -3.491481338843133355E-15, 1.224646799147353207E-16, -1.000000000000000000 ) ) ;
#74 = ADVANCED_FACE ( 'NONE', ( #45 ), #19, .T. ) ;
#75 = FACE_OUTER_BOUND ( 'NONE', #268, .T. ) ;
#76 = DIRECTION ( 'NONE',  ( -3.491481338843133355E-15, 1.224646799147353207E-16, -1.000000000000000000 ) ) ;
#77 = DIRECTION ( 'NONE',  ( 0.000000000000000000, 1.000000000000000000, 0.000000000000000000 ) ) ;
#78 = DIRECTION ( 'NONE',  ( 3.491481338843133355E-15, -1.217917285207545432E-16, 1.000000000000000000 ) ) ;
#79 = CARTESIAN_POINT ( 'NONE',  ( 3.456566525454702148E-13, 7.999999999999988454, 99.00000000000000000 ) ) ;
#80 = CALENDAR_DATE ( 2023, 3, 4 ) ;
#81 = VECTOR ( 'NONE', #106, 1000.000000000000000 ) ;
#82 = CALENDAR_DATE ( 2023, 3, 4 ) ;
#83 = VECTOR ( 'NONE', #53, 1000.000000000000000 ) ;
#84 = APPROVAL_ROLE ( '' ) ;
#85 = AXIS2_PLACEMENT_3D ( 'NONE', #265, #281, #202 ) ;
#86 = EDGE_CURVE ( 'NONE', #112, #130, #134, .T. ) ;
#87 = APPROVAL_DATE_TIME ( #341, #178 ) ;
#88 = DIRECTION ( 'NONE',  ( 4.275831445896958607E-31, 1.000000000000000000, 1.224646799147353207E-16 ) ) ;
#89 = EDGE_LOOP ( 'NONE', ( #181, #285, #267, #41 ) ) ;
#90 = MECHANICAL_CONTEXT ( 'NONE', #306, 'mechanical' ) ;
#91 = VERTEX_POINT ( 'NONE', #259 ) ;
#92 = CC_DESIGN_APPROVAL ( #178, ( #322 ) ) ;
#93 = VERTEX_POINT ( 'NONE', #357 ) ;
#94 = ADVANCED_BREP_SHAPE_REPRESENTATION ( '367655', ( #209, #211, #331 ), #191 ) ;
#95 = ORIENTED_EDGE ( 'NONE', *, *, #121, .T. ) ;
#96 = AXIS2_PLACEMENT_3D ( 'NONE', #194, #73, #298 ) ;
#97 = LINE ( 'NONE', #247, #269 ) ;
#98 = EDGE_CURVE ( 'NONE', #112, #13, #55, .T. ) ;
#99 = ORIENTED_EDGE ( 'NONE', *, *, #168, .F. ) ;
#100 = AXIS2_PLACEMENT_3D ( 'NONE', #340, #235, #118 ) ;
#101 = DIRECTION ( 'NONE',  ( -4.275831445896958607E-31, -1.000000000000000000, -1.224646799147353207E-16 ) ) ;
#102 =( LENGTH_UNIT ( ) NAMED_UNIT ( * ) SI_UNIT ( .MILLI., .METRE. ) );
#103 = CARTESIAN_POINT ( 'NONE',  ( 3.420665156717566885E-30, 8.000000000000000000, 9.797174393178825657E-16 ) ) ;
#104 = FACE_OUTER_BOUND ( 'NONE', #89, .T. ) ;
#105 = AXIS2_PLACEMENT_3D ( 'NONE', #299, #219, #48 ) ;
#106 = DIRECTION ( 'NONE',  ( -3.491481338843133355E-15, 1.224646799147353207E-16, -1.000000000000000000 ) ) ;
#107 = ADVANCED_FACE ( 'NONE', ( #136 ), #233, .T. ) ;
#108 = CARTESIAN_POINT ( 'NONE',  ( 0.000000000000000000, 0.000000000000000000, 0.000000000000000000 ) ) ;
#109 = CYLINDRICAL_SURFACE ( 'NONE', #71, 8.000000000000000000 ) ;
#110 = AXIS2_PLACEMENT_3D ( 'NONE', #320, #345, #271 ) ;
#111 = CC_DESIGN_PERSON_AND_ORGANIZATION_ASSIGNMENT ( #262, #266, ( #322 ) ) ;
#112 = VERTEX_POINT ( 'NONE', #43 ) ;
#113 = CIRCLE ( 'NONE', #335, 7.000000000000000000 ) ;
#114 = CC_DESIGN_APPROVAL ( #221, ( #355 ) ) ;
#115 = APPLICATION_PROTOCOL_DEFINITION ( 'international standard', 'config_control_design', 1994, #212 ) ;
#116 = DATE_TIME_ROLE ( 'classification_date' ) ;
#117 = DIRECTION ( 'NONE',  ( -3.491481338843133355E-15, 1.224646799147353207E-16, -1.000000000000000000 ) ) ;
#118 = DIRECTION ( 'NONE',  ( 0.000000000000000000, 1.000000000000000000, 0.000000000000000000 ) ) ;
#119 = AXIS2_PLACEMENT_3D ( 'NONE', #15, #190, #44 ) ;
#120 = DIRECTION ( 'NONE',  ( 1.000000000000000000, 0.000000000000000000, 0.000000000000000000 ) ) ;
#121 = EDGE_CURVE ( 'NONE', #130, #347, #302, .T. ) ;
#122 = DIRECTION ( 'NONE',  ( -3.491481338843133355E-15, 1.224646799147353207E-16, -1.000000000000000000 ) ) ;
#123 = ORIENTED_EDGE ( 'NONE', *, *, #236, .T. ) ;
#124 = COORDINATED_UNIVERSAL_TIME_OFFSET ( 1, 0, .AHEAD. ) ;
#125 = CARTESIAN_POINT ( 'NONE',  ( 0.000000000000000000, 0.000000000000000000, 0.000000000000000000 ) ) ;
#126 = EDGE_LOOP ( 'NONE', ( #290, #70, #3, #186 ) ) ;
#127 = EDGE_LOOP ( 'NONE', ( #272, #185, #158, #317 ) ) ;
#128 = VECTOR ( 'NONE', #337, 999.9999999999998863 ) ;
#129 = LINE ( 'NONE', #245, #338 ) ;
#130 = VERTEX_POINT ( 'NONE', #326 ) ;
#131 = AXIS2_PLACEMENT_3D ( 'NONE', #251, #229, #77 ) ;
#132 = VECTOR ( 'NONE', #316, 1000.000000000000114 ) ;
#133 = DIRECTION ( 'NONE',  ( 4.275831445896958607E-31, 1.000000000000000000, 1.224646799147353207E-16 ) ) ;
#134 = LINE ( 'NONE', #253, #81 ) ;
#135 = CLOSED_SHELL ( 'NONE', ( #107, #319, #148, #157, #74, #353 ) ) ;
#136 = FACE_OUTER_BOUND ( 'NONE', #346, .T. ) ;
#137 = LINE ( 'NONE', #258, #83 ) ;
#138 = AXIS2_PLACEMENT_3D ( 'NONE', #29, #363, #176 ) ;
#139 = DIRECTION ( 'NONE',  ( -4.212971753347078429E-31, -1.000000000000000000, -1.219727444046192488E-16 ) ) ;
#140 = LOCAL_TIME ( 8, 1, 23.00000000000000000, #173 ) ;
#141 = EDGE_CURVE ( 'NONE', #294, #93, #250, .T. ) ;
#142 = DIRECTION ( 'NONE',  ( -3.491481338843133355E-15, 1.224646799147353207E-16, -1.000000000000000000 ) ) ;
#143 = CARTESIAN_POINT ( 'NONE',  ( 1.256933281983528008E-13, -4.408728476930470856E-15, 36.00000000000000000 ) ) ;
#144 = DATE_AND_TIME ( #280, #59 ) ;
#145 = CARTESIAN_POINT ( 'NONE',  ( -3.316821669374174731E-30, 1.156991560613707363E-31, -9.499754824618853288E-16 ) ) ;
#146 = AXIS2_PLACEMENT_3D ( 'NONE', #125, #122, #88 ) ;
#147 = PERSON_AND_ORGANIZATION_ROLE ( 'design_supplier' ) ;
#148 = ADVANCED_FACE ( 'NONE', ( #255 ), #328, .T. ) ;
#149 = APPROVAL_DATE_TIME ( #314, #360 ) ;
#150 = FACE_OUTER_BOUND ( 'NONE', #348, .T. ) ;
#151 = FACE_OUTER_BOUND ( 'NONE', #126, .T. ) ;
#152 = DATE_TIME_ROLE ( 'creation_date' ) ;
#153 = PRODUCT_RELATED_PRODUCT_CATEGORY ( 'detail', '', ( #42 ) ) ;
#154 = ORIENTED_EDGE ( 'NONE', *, *, #224, .T. ) ;
#155 = CONICAL_SURFACE ( 'NONE', #85, 8.000000000000000000, 0.7853981633974479459 ) ;
#156 = CALENDAR_DATE ( 2023, 3, 4 ) ;
#157 = ADVANCED_FACE ( 'NONE', ( #188 ), #193, .T. ) ;
#158 = ORIENTED_EDGE ( 'NONE', *, *, #57, .T. ) ;
#159 = CIRCLE ( 'NONE', #248, 8.000000000000000000 ) ;
#160 = ORIENTED_EDGE ( 'NONE', *, *, #1, .F. ) ;
#161 = ORIENTED_EDGE ( 'NONE', *, *, #343, .T. ) ;
#162 = VERTEX_POINT ( 'NONE', #14 ) ;
#163 = EDGE_CURVE ( 'NONE', #249, #294, #309, .T. ) ;
#164 = DIRECTION ( 'NONE',  ( -3.491481338843133355E-15, 1.224646799147353207E-16, -1.000000000000000000 ) ) ;
#165 = DIRECTION ( 'NONE',  ( 3.491481338843133355E-15, -1.217917285207545432E-16, 1.000000000000000000 ) ) ;
#166 = DIRECTION ( 'NONE',  ( -3.491481338843133355E-15, 1.224646799147353207E-16, -1.000000000000000000 ) ) ;
#167 = CARTESIAN_POINT ( 'NONE',  ( 3.466363699847880960E-13, -8.000000000000012434, 99.00000000000000000 ) ) ;
#168 = EDGE_CURVE ( 'NONE', #13, #347, #97, .T. ) ;
#169 = CIRCLE ( 'NONE', #334, 8.000000000000000000 ) ;
#170 = APPROVAL_PERSON_ORGANIZATION ( #210, #178, #339 ) ;
#171 = DIRECTION ( 'NONE',  ( 3.491481338843133355E-15, -1.217917285207545432E-16, 1.000000000000000000 ) ) ;
#172 = CARTESIAN_POINT ( 'NONE',  ( 3.456566525454702148E-13, -1.212400331155879702E-14, 99.00000000000000000 ) ) ;
#173 = COORDINATED_UNIVERSAL_TIME_OFFSET ( 1, 0, .AHEAD. ) ;
#174 = EDGE_CURVE ( 'NONE', #162, #13, #336, .T. ) ;
#175 = ORGANIZATION ( 'UNSPECIFIED', 'UNSPECIFIED', '' ) ;
#176 = DIRECTION ( 'NONE',  ( -4.275831445896958607E-31, -1.000000000000000000, -1.224646799147353207E-16 ) ) ;
#177 = VERTEX_POINT ( 'NONE', #234 ) ;
#178 = APPROVAL ( #232, 'UNSPECIFIED' ) ;
#179 = SECURITY_CLASSIFICATION_LEVEL ( 'unclassified' ) ;
#180 = ORIENTED_EDGE ( 'NONE', *, *, #192, .T. ) ;
#181 = ORIENTED_EDGE ( 'NONE', *, *, #86, .F. ) ;
#182 = CIRCLE ( 'NONE', #7, 7.799999999999998934 ) ;
#183 = ORIENTED_EDGE ( 'NONE', *, *, #98, .F. ) ;
#184 = VECTOR ( 'NONE', #297, 1000.000000000000000 ) ;
#185 = ORIENTED_EDGE ( 'NONE', *, *, #216, .T. ) ;
#186 = ORIENTED_EDGE ( 'NONE', *, *, #174, .F. ) ;
#187 = CARTESIAN_POINT ( 'NONE',  ( 6.982962677686250933E-16, -2.435834570415085380E-17, 0.1999999999999995393 ) ) ;
#188 = FACE_OUTER_BOUND ( 'NONE', #35, .T. ) ;
#189 = UNCERTAINTY_MEASURE_WITH_UNIT (LENGTH_MEASURE( 1.000000000000000082E-05 ), #102, 'distance_accuracy_value', 'NONE');
#190 = DIRECTION ( 'NONE',  ( 3.491481338843133355E-15, -1.217917285207545432E-16, 1.000000000000000000 ) ) ;
#191 =( GEOMETRIC_REPRESENTATION_CONTEXT ( 3 ) GLOBAL_UNCERTAINTY_ASSIGNED_CONTEXT ( ( #189 ) ) GLOBAL_UNIT_ASSIGNED_CONTEXT ( ( #102, #218, #198 ) ) REPRESENTATION_CONTEXT ( 'NONE', 'WORKASPACE' ) );
#192 = EDGE_CURVE ( 'NONE', #13, #112, #169, .T. ) ;
#193 = PLANE ( 'NONE',  #349 ) ;
#194 = CARTESIAN_POINT ( 'NONE',  ( 0.000000000000000000, 0.000000000000000000, 0.000000000000000000 ) ) ;
#195 = AXIS2_PLACEMENT_3D ( 'NONE', #108, #76, #227 ) ;
#196 = DIRECTION ( 'NONE',  ( 0.000000000000000000, 1.000000000000000000, 0.000000000000000000 ) ) ;
#197 = PLANE ( 'NONE',  #226 ) ;
#198 =( NAMED_UNIT ( * ) SI_UNIT ( $, .STERADIAN. ) SOLID_ANGLE_UNIT ( ) );
#199 = APPROVAL_DATE_TIME ( #31, #221 ) ;
#200 = VECTOR ( 'NONE', #21, 1000.000000000000000 ) ;
#201 = EDGE_CURVE ( 'NONE', #91, #63, #182, .T. ) ;
#202 = DIRECTION ( 'NONE',  ( 0.000000000000000000, 1.000000000000000000, 0.000000000000000000 ) ) ;
#203 = AXIS2_PLACEMENT_3D ( 'NONE', #278, #24, #23 ) ;
#204 = APPROVAL_PERSON_ORGANIZATION ( #231, #221, #84 ) ;
#205 = CYLINDRICAL_SURFACE ( 'NONE', #146, 8.000000000000000000 ) ;
#206 = ADVANCED_FACE ( 'NONE', ( #333 ), #197, .F. ) ;
#207 = CARTESIAN_POINT ( 'NONE',  ( 3.483208783142523266E-13, -7.000000000000012434, 100.0000000000000000 ) ) ;
#208 = ORIENTED_EDGE ( 'NONE', *, *, #40, .T. ) ;
#209 = MANIFOLD_SOLID_BREP ( 'Corps-Déplacer/Copier1[1]', #274 ) ;
#210 = PERSON_AND_ORGANIZATION ( #9, #175 ) ;
#211 = MANIFOLD_SOLID_BREP ( 'Corps-Déplacer/Copier1[2]', #135 ) ;
#212 = APPLICATION_CONTEXT ( 'configuration controlled 3d designs of mechanical parts and assemblies' ) ;
#213 = ORIENTED_EDGE ( 'NONE', *, *, #174, .T. ) ;
#214 = CC_DESIGN_PERSON_AND_ORGANIZATION_ASSIGNMENT ( #344, #310, ( #355 ) ) ;
#215 = ORIENTED_EDGE ( 'NONE', *, *, #141, .T. ) ;
#216 = EDGE_CURVE ( 'NONE', #249, #177, #137, .T. ) ;
#217 = ORIENTED_EDGE ( 'NONE', *, *, #11, .F. ) ;
#218 =( NAMED_UNIT ( * ) PLANE_ANGLE_UNIT ( ) SI_UNIT ( $, .RADIAN. ) );
#219 = DIRECTION ( 'NONE',  ( -3.491481338843133355E-15, 1.224646799147353207E-16, -1.000000000000000000 ) ) ;
#220 = ORIENTED_EDGE ( 'NONE', *, *, #313, .T. ) ;
#221 = APPROVAL ( #362, 'UNSPECIFIED' ) ;
#222 = CARTESIAN_POINT ( 'NONE',  ( 1.256933281983528008E-13, -4.408728476930470856E-15, 36.00000000000000000 ) ) ;
#223 = CARTESIAN_POINT ( 'NONE',  ( 1.256933281983528008E-13, -4.408728476930470856E-15, 36.00000000000000000 ) ) ;
#224 = EDGE_CURVE ( 'NONE', #63, #91, #237, .T. ) ;
#225 = AXIS2_PLACEMENT_3D ( 'NONE', #18, #165, #139 ) ;
#226 = AXIS2_PLACEMENT_3D ( 'NONE', #276, #142, #307 ) ;
#227 = DIRECTION ( 'NONE',  ( 4.275831445896958607E-31, 1.000000000000000000, 1.224646799147353207E-16 ) ) ;
#228 = LOCAL_TIME ( 8, 1, 23.00000000000000000, #124 ) ;
#229 = DIRECTION ( 'NONE',  ( -3.491481338843133355E-15, 1.224646799147353207E-16, -1.000000000000000000 ) ) ;
#230 = CIRCLE ( 'NONE', #100, 7.000000000000000000 ) ;
#231 = PERSON_AND_ORGANIZATION ( #9, #175 ) ;
#232 = APPROVAL_STATUS ( 'not_yet_approved' ) ;
#233 = CONICAL_SURFACE ( 'NONE', #119, 8.000000000000000000, 0.7853981633974504994 ) ;
#234 = CARTESIAN_POINT ( 'NONE',  ( 6.417552967237858860E-14, -8.000000000000000000, 0.1999999999999985678 ) ) ;
#235 = DIRECTION ( 'NONE',  ( -3.491481338843133355E-15, 1.224646799147353207E-16, -1.000000000000000000 ) ) ;
#236 = EDGE_CURVE ( 'NONE', #93, #177, #58, .T. ) ;
#237 = CIRCLE ( 'NONE', #293, 7.799999999999998934 ) ;
#238 = EDGE_LOOP ( 'NONE', ( #180, #270, #292, #99 ) ) ;
#239 = COORDINATED_UNIVERSAL_TIME_OFFSET ( 1, 0, .AHEAD. ) ;
#240 = PLANE ( 'NONE',  #110 ) ;
#241 = ORIENTED_EDGE ( 'NONE', *, *, #257, .F. ) ;
#242 = CARTESIAN_POINT ( 'NONE',  ( 1.256933281983528008E-13, 7.999999999999996447, 36.00000000000000000 ) ) ;
#243 = ORIENTED_EDGE ( 'NONE', *, *, #224, .F. ) ;
#244 = CC_DESIGN_SECURITY_CLASSIFICATION ( #322, ( #355 ) ) ;
#245 = CARTESIAN_POINT ( 'NONE',  ( 1.678013707086511012E-15, 8.000000000000000000, 0.2000000000000005107 ) ) ;
#246 = CC_DESIGN_PERSON_AND_ORGANIZATION_ASSIGNMENT ( #56, #263, ( #69 ) ) ;
#247 = CARTESIAN_POINT ( 'NONE',  ( 3.420665156717566885E-30, 8.000000000000000000, 9.797174393178825657E-16 ) ) ;
#248 = AXIS2_PLACEMENT_3D ( 'NONE', #187, #78, #301 ) ;
#249 = VERTEX_POINT ( 'NONE', #311 ) ;
#250 = LINE ( 'NONE', #103, #184 ) ;
#251 = CARTESIAN_POINT ( 'NONE',  ( 3.456566525454702148E-13, -1.212400331155879702E-14, 99.00000000000000000 ) ) ;
#252 = CC_DESIGN_PERSON_AND_ORGANIZATION_ASSIGNMENT ( #66, #358, ( #42 ) ) ;
#253 = CARTESIAN_POINT ( 'NONE',  ( 9.797174393178792131E-16, -8.000000000000000000, -9.797174393178859184E-16 ) ) ;
#254 = CC_DESIGN_DATE_AND_TIME_ASSIGNMENT ( #144, #152, ( #69 ) ) ;
#255 = FACE_OUTER_BOUND ( 'NONE', #288, .T. ) ;
#256 = CARTESIAN_POINT ( 'NONE',  ( 3.456566525454702148E-13, 7.999999999999988454, 99.00000000000000000 ) ) ;
#257 = EDGE_CURVE ( 'NONE', #294, #249, #305, .T. ) ;
#258 = CARTESIAN_POINT ( 'NONE',  ( 9.797174393178792131E-16, -8.000000000000000000, -9.797174393178859184E-16 ) ) ;
#259 = CARTESIAN_POINT ( 'NONE',  ( 1.316619105210726489E-15, 7.799999999999998934, -4.622231866529366047E-30 ) ) ;
#260 = DIRECTION ( 'NONE',  ( -3.491481338843133355E-15, 1.224646799147353207E-16, -1.000000000000000000 ) ) ;
#261 = DIRECTION ( 'NONE',  ( 0.000000000000000000, 0.000000000000000000, 1.000000000000000000 ) ) ;
#262 = PERSON_AND_ORGANIZATION ( #9, #175 ) ;
#263 = PERSON_AND_ORGANIZATION_ROLE ( 'creator' ) ;
#264 = PLANE ( 'NONE',  #138 ) ;
#265 = CARTESIAN_POINT ( 'NONE',  ( 3.456566525454702148E-13, -1.212400331155879702E-14, 99.00000000000000000 ) ) ;
#266 = PERSON_AND_ORGANIZATION_ROLE ( 'classification_officer' ) ;
#267 = ORIENTED_EDGE ( 'NONE', *, *, #168, .T. ) ;
#268 = EDGE_LOOP ( 'NONE', ( #217, #220, #213, #183 ) ) ;
#269 = VECTOR ( 'NONE', #117, 1000.000000000000000 ) ;
#270 = ORIENTED_EDGE ( 'NONE', *, *, #86, .T. ) ;
#271 = DIRECTION ( 'NONE',  ( 4.275831445896958607E-31, 1.000000000000000000, 1.224646799147353207E-16 ) ) ;
#272 = ORIENTED_EDGE ( 'NONE', *, *, #257, .T. ) ;
#273 = ORIENTED_EDGE ( 'NONE', *, *, #236, .F. ) ;
#274 = CLOSED_SHELL ( 'NONE', ( #308, #32, #275, #5, #54, #206 ) ) ;
#275 = ADVANCED_FACE ( 'NONE', ( #150 ), #264, .F. ) ;
#276 = CARTESIAN_POINT ( 'NONE',  ( 3.491481338843133355E-13, 5.249159239316484111E-32, 100.0000000000000000 ) ) ;
#277 = APPLICATION_PROTOCOL_DEFINITION ( 'international standard', 'config_control_design', 1994, #306 ) ;
#278 = CARTESIAN_POINT ( 'NONE',  ( 6.982962677686250933E-16, -2.435834570415085380E-17, 0.1999999999999995393 ) ) ;
#279 = CARTESIAN_POINT ( 'NONE',  ( 0.000000000000000000, 0.000000000000000000, 0.000000000000000000 ) ) ;
#280 = CALENDAR_DATE ( 2023, 3, 4 ) ;
#281 = DIRECTION ( 'NONE',  ( -3.491481338843133355E-15, 1.224646799147353207E-16, -1.000000000000000000 ) ) ;
#282 = DIRECTION ( 'NONE',  ( 0.000000000000000000, 1.000000000000000000, 0.000000000000000000 ) ) ;
#283 = FACE_OUTER_BOUND ( 'NONE', #127, .T. ) ;
#284 = DATE_AND_TIME ( #34, #47 ) ;
#285 = ORIENTED_EDGE ( 'NONE', *, *, #98, .T. ) ;
#286 = APPROVAL_ROLE ( '' ) ;
#287 = CARTESIAN_POINT ( 'NONE',  ( 6.982962677686217407E-16, -8.000000000000000000, 0.1999999999999985678 ) ) ;
#288 = EDGE_LOOP ( 'NONE', ( #350, #37, #215, #123 ) ) ;
#289 = FACE_OUTER_BOUND ( 'NONE', #72, .T. ) ;
#290 = ORIENTED_EDGE ( 'NONE', *, *, #304, .T. ) ;
#291 = CIRCLE ( 'NONE', #361, 8.000000000000001776 ) ;
#292 = ORIENTED_EDGE ( 'NONE', *, *, #40, .F. ) ;
#293 = AXIS2_PLACEMENT_3D ( 'NONE', #303, #171, #51 ) ;
#294 = VERTEX_POINT ( 'NONE', #242 ) ;
#295 = LOCAL_TIME ( 8, 1, 23.00000000000000000, #318 ) ;
#296 = DIRECTION ( 'NONE',  ( 0.000000000000000000, 1.000000000000000000, 0.000000000000000000 ) ) ;
#297 = DIRECTION ( 'NONE',  ( -3.491481338843133355E-15, 1.224646799147353207E-16, -1.000000000000000000 ) ) ;
#298 = DIRECTION ( 'NONE',  ( 4.275831445896958607E-31, 1.000000000000000000, 1.224646799147353207E-16 ) ) ;
#299 = CARTESIAN_POINT ( 'NONE',  ( 1.256933281983528008E-13, -4.408728476930470856E-15, 36.00000000000000000 ) ) ;
#300 = DIRECTION ( 'NONE',  ( -3.491481338843133355E-15, 1.224646799147353207E-16, -1.000000000000000000 ) ) ;
#301 = DIRECTION ( 'NONE',  ( -4.212971753347078429E-31, -1.000000000000000000, -1.219727444046192488E-16 ) ) ;
#302 = CIRCLE ( 'NONE', #105, 8.000000000000001776 ) ;
#303 = CARTESIAN_POINT ( 'NONE',  ( -3.316821669374174731E-30, 1.156991560613707363E-31, -9.499754824618853288E-16 ) ) ;
#304 = EDGE_CURVE ( 'NONE', #162, #323, #230, .T. ) ;
#305 = CIRCLE ( 'NONE', #16, 8.000000000000001776 ) ;
#306 = APPLICATION_CONTEXT ( 'configuration controlled 3d designs of mechanical parts and assemblies' ) ;
#307 = DIRECTION ( 'NONE',  ( 4.275831445896958607E-31, 1.000000000000000000, 1.224646799147353207E-16 ) ) ;
#308 = ADVANCED_FACE ( 'NONE', ( #151 ), #155, .T. ) ;
#309 = CIRCLE ( 'NONE', #30, 8.000000000000001776 ) ;
#310 = PERSON_AND_ORGANIZATION_ROLE ( 'creator' ) ;
#311 = CARTESIAN_POINT ( 'NONE',  ( 6.417552967237856336E-14, -8.000000000000007105, 36.00000000000000000 ) ) ;
#312 = CARTESIAN_POINT ( 'NONE',  ( 3.491481338843133355E-13, -1.224646799147353217E-14, 100.0000000000000000 ) ) ;
#313 = EDGE_CURVE ( 'NONE', #323, #162, #113, .T. ) ;
#314 = DATE_AND_TIME ( #80, #228 ) ;
#315 = SHAPE_DEFINITION_REPRESENTATION ( #27, #94 ) ;
#316 = DIRECTION ( 'NONE',  ( 2.468850131082259427E-15, -0.7071067811865491270, 0.7071067811865459074 ) ) ;
#317 = ORIENTED_EDGE ( 'NONE', *, *, #141, .F. ) ;
#318 = COORDINATED_UNIVERSAL_TIME_OFFSET ( 1, 0, .AHEAD. ) ;
#319 = ADVANCED_FACE ( 'NONE', ( #283 ), #205, .T. ) ;
#320 = CARTESIAN_POINT ( 'NONE',  ( -1.710332578358783092E-30, 5.999039130647430431E-32, -4.898587196589412829E-16 ) ) ;
#321 = ORIENTED_EDGE ( 'NONE', *, *, #57, .F. ) ;
#322 = SECURITY_CLASSIFICATION ( '', '', #179 ) ;
#323 = VERTEX_POINT ( 'NONE', #207 ) ;
#324 = AXIS2_PLACEMENT_3D ( 'NONE', #2, #164, #329 ) ;
#325 = ORIENTED_EDGE ( 'NONE', *, *, #1, .T. ) ;
#326 = CARTESIAN_POINT ( 'NONE',  ( 2.366547078112293890E-13, -8.000000000000007105, 36.00000000000000000 ) ) ;
#327 = DIRECTION ( 'NONE',  ( -3.491481338843133355E-15, 1.224646799147353207E-16, -1.000000000000000000 ) ) ;
#328 = CYLINDRICAL_SURFACE ( 'NONE', #195, 8.000000000000000000 ) ;
#329 = DIRECTION ( 'NONE',  ( 0.000000000000000000, 1.000000000000000000, 0.000000000000000000 ) ) ;
#330 = DIRECTION ( 'NONE',  ( 2.555445736705809668E-15, 0.7071067811865489050, 0.7071067811865461294 ) ) ;
#331 = AXIS2_PLACEMENT_3D ( 'NONE', #279, #261, #120 ) ;
#332 = CC_DESIGN_DATE_AND_TIME_ASSIGNMENT ( #284, #116, ( #322 ) ) ;
#333 = FACE_OUTER_BOUND ( 'NONE', #65, .T. ) ;
#334 = AXIS2_PLACEMENT_3D ( 'NONE', #172, #26, #196 ) ;
#335 = AXIS2_PLACEMENT_3D ( 'NONE', #312, #36, #61 ) ;
#336 = LINE ( 'NONE', #79, #128 ) ;
#337 = DIRECTION ( 'NONE',  ( -2.468850131082266527E-15, 0.7071067811865473507, -0.7071067811865477948 ) ) ;
#338 = VECTOR ( 'NONE', #330, 1000.000000000000114 ) ;
#339 = APPROVAL_ROLE ( '' ) ;
#340 = CARTESIAN_POINT ( 'NONE',  ( 3.491481338843133355E-13, -1.224646799147353217E-14, 100.0000000000000000 ) ) ;
#341 = DATE_AND_TIME ( #156, #295 ) ;
#342 = ORIENTED_EDGE ( 'NONE', *, *, #201, .F. ) ;
#343 = EDGE_CURVE ( 'NONE', #63, #177, #67, .T. ) ;
#344 = PERSON_AND_ORGANIZATION ( #9, #175 ) ;
#345 = DIRECTION ( 'NONE',  ( -3.491481338843133355E-15, 1.224646799147353207E-16, -1.000000000000000000 ) ) ;
#346 = EDGE_LOOP ( 'NONE', ( #154, #325, #321, #39 ) ) ;
#347 = VERTEX_POINT ( 'NONE', #64 ) ;
#348 = EDGE_LOOP ( 'NONE', ( #208, #95 ) ) ;
#349 = AXIS2_PLACEMENT_3D ( 'NONE', #351, #49, #101 ) ;
#350 = ORIENTED_EDGE ( 'NONE', *, *, #216, .F. ) ;
#351 = CARTESIAN_POINT ( 'NONE',  ( 1.256933281983528008E-13, 5.999039130647424958E-32, 36.00000000000000000 ) ) ;
#352 = CYLINDRICAL_SURFACE ( 'NONE', #96, 8.000000000000000000 ) ;
#353 = ADVANCED_FACE ( 'NONE', ( #289 ), #240, .T. ) ;
#354 = FACE_OUTER_BOUND ( 'NONE', #238, .T. ) ;
#355 = PRODUCT_DEFINITION_FORMATION_WITH_SPECIFIED_SOURCE ( 'ANY', '', #42, .NOT_KNOWN. ) ;
#356 = DESIGN_CONTEXT ( 'detailed design', #212, 'design' ) ;
#357 = CARTESIAN_POINT ( 'NONE',  ( 6.319581223306073266E-14, 8.000000000000000000, 0.2000000000000005107 ) ) ;
#358 = PERSON_AND_ORGANIZATION_ROLE ( 'design_owner' ) ;
#359 = COORDINATED_UNIVERSAL_TIME_OFFSET ( 1, 0, .AHEAD. ) ;
#360 = APPROVAL ( #62, 'UNSPECIFIED' ) ;
#361 = AXIS2_PLACEMENT_3D ( 'NONE', #223, #327, #296 ) ;
#362 = APPROVAL_STATUS ( 'not_yet_approved' ) ;
#363 = DIRECTION ( 'NONE',  ( 3.491481338843133355E-15, -1.224646799147353207E-16, 1.000000000000000000 ) ) ;
ENDSEC;
END-ISO-10303-21;
